  0
SECTION
  2
ENTITIES
  0
POLYLINE
  8
MESH
 62
      2
 66
     1
 10
0.0
 20
0.0
 30
0.0
 70
     8
  0
VERTEX
  8
MESH
 62
      2
 10
         3011.941406250
 20
         3533.662109375
 30
          977.075195312
 70
    32
  0
VERTEX
  8
MESH
 62
      2
 10
         3046.257812500
 20
         3493.792480469
 30
          979.974243164
 70
    32
  0
VERTEX
  8
MESH
 62
      2
 10
         3078.289062500
 20
         3457.424316406
 30
          975.826538086
 70
    32
  0
VERTEX
  8
MESH
 62
      2
 10
         3106.386718750
 20
         3425.778320312
 30
          970.000000000
 70
    32
  0
VERTEX
  8
MESH
 62
      2
 10
         3145.804687500
 20
         3380.390136719
 30
          970.000000000
 70
    32
  0
VERTEX
  8
MESH
 62
      2
 10
         3178.875000000
 20
         3342.315917969
 30
          970.000000000
 70
    32
  0
VERTEX
  8
MESH
 62
      2
 10
         3207.750000000
 20
         3309.060546875
 30
          970.033813477
 70
    32
  0
VERTEX
  8
MESH
 62
      2
 10
         3244.804687500
 20
         3266.111816406
 30
          972.348266602
 70
    32
  0
VERTEX
  8
MESH
 62
      2
 10
         3277.015625000
 20
         3228.781738281
 30
          974.330932617
 70
    32
  0
VERTEX
  8
MESH
 62
      2
 10
         3309.507812500
 20
         3191.033203125
 30
          977.104492188
 70
    32
  0
VERTEX
  8
MESH
 62
      2
 10
         3340.246093750
 20
         3155.286132812
 30
          980.000183105
 70
    32
  0
VERTEX
  8
MESH
 62
      2
 10
         3371.207031250
 20
         3119.258300781
 30
          983.119567871
 70
    32
  0
VERTEX
  8
MESH
 62
      2
 10
         3406.199218750
 20
         3078.593750000
 30
          986.136962891
 70
    32
  0
VERTEX
  8
MESH
 62
      2
 10
         3440.468750000
 20
         3038.730468750
 30
          989.472778320
 70
    32
  0
VERTEX
  8
MESH
 62
      2
 10
         3470.570312500
 20
         3003.636718750
 30
          993.001037598
 70
    32
  0
VERTEX
  8
MESH
 62
      2
 10
         3503.250000000
 20
         2965.250000000
 30
          999.221313477
 70
    32
  0
VERTEX
  8
MESH
 62
      2
 10
         3533.417968750
 20
         2928.528808594
 30
         1015.457824707
 70
    32
  0
VERTEX
  8
MESH
 62
      2
 10
         3566.203125000
 20
         2890.626464844
 30
         1016.698852539
 70
    32
  0
VERTEX
  8
MESH
 62
      2
 10
         3599.175781250
 20
         2852.486328125
 30
         1018.139221191
 70
    32
  0
VERTEX
  8
MESH
 62
      2
 10
         3632.074218750
 20
         2813.838378906
 30
         1024.412841797
 70
    32
  0
VERTEX
  8
MESH
 62
      2
 10
         3663.117187500
 20
         2777.030273438
 30
         1033.096435547
 70
    32
  0
VERTEX
  8
MESH
 62
      2
 10
         3694.007812500
 20
         2739.897949219
 30
         1045.896972656
 70
    32
  0
VERTEX
  8
MESH
 62
      2
 10
         3723.464843750
 20
         2703.387695312
 30
         1067.145263672
 70
    32
  0
VERTEX
  8
MESH
 62
      2
 10
         3751.246093750
 20
         2668.610839844
 30
         1089.988281250
 70
    32
  0
VERTEX
  8
MESH
 62
      2
 10
         3777.320312500
 20
         2635.504882812
 30
         1115.177856445
 70
    32
  0
VERTEX
  8
MESH
 62
      2
 10
         3807.773437500
 20
         2598.493164062
 30
         1131.123291016
 70
    32
  0
VERTEX
  8
MESH
 62
      2
 10
         3840.070312500
 20
         2560.373535156
 30
         1138.760986328
 70
    32
  0
VERTEX
  8
MESH
 62
      2
 10
         3872.820312500
 20
         2523.295410156
 30
         1133.566162109
 70
    32
  0
VERTEX
  8
MESH
 62
      2
 10
         3906.199218750
 20
         2486.320800781
 30
         1121.642089844
 70
    32
  0
VERTEX
  8
MESH
 62
      2
 10
         3939.191406250
 20
         2449.743164062
 30
         1110.089355469
 70
    32
  0
VERTEX
  8
MESH
 62
      2
 10
         3970.558593750
 20
         2415.580078125
 30
         1094.149047852
 70
    32
  0
VERTEX
  8
MESH
 62
      2
 10
         4003.933593750
 20
         2378.695312500
 30
         1081.473022461
 70
    32
  0
VERTEX
  8
MESH
 62
      2
 10
         4035.871093750
 20
         2342.495605469
 30
         1076.765136719
 70
    32
  0
VERTEX
  8
MESH
 62
      2
 10
         4067.339843750
 20
         2305.263183594
 30
         1084.971557617
 70
    32
  0
VERTEX
  8
MESH
 62
      2
 10
         4100.648437500
 20
         2267.819824219
 30
         1077.543334961
 70
    32
  0
VERTEX
  8
MESH
 62
      2
 10
         4134.300781250
 20
         2230.943359375
 30
         1062.201782227
 70
    32
  0
VERTEX
  8
MESH
 62
      2
 10
         4165.785156250
 20
         2196.263671875
 30
         1049.340454102
 70
    32
  0
VERTEX
  8
MESH
 62
      2
 10
         4199.089843750
 20
         2158.519531250
 30
         1044.381103516
 70
    32
  0
VERTEX
  8
MESH
 62
      2
 10
         4233.371093750
 20
         2119.244140625
 30
         1042.779418945
 70
    32
  0
VERTEX
  8
MESH
 62
      2
 10
         4263.250000000
 20
         2084.999511719
 30
         1041.454956055
 70
    32
  0
VERTEX
  8
MESH
 62
      2
 10
         4298.460937500
 20
         2044.638183594
 30
         1040.000000000
 70
    32
  0
VERTEX
  8
MESH
 62
      2
 10
         4331.601562500
 20
         2006.817382812
 30
         1037.210693359
 70
    32
  0
VERTEX
  8
MESH
 62
      2
 10
         4364.210937500
 20
         1970.512695312
 30
         1027.047485352
 70
    32
  0
VERTEX
  8
MESH
 62
      2
 10
         4398.699218750
 20
         1931.372558594
 30
         1022.378784180
 70
    32
  0
VERTEX
  8
MESH
 62
      2
 10
         4430.414062500
 20
         1895.184570312
 30
         1019.686218262
 70
    32
  0
SEQEND
  0
POLYLINE
  8
MESH
 62
      2
 66
     1
 10
0.0
 20
0.0
 30
0.0
 70
     8
  0
VERTEX
  8
MESH
 62
      2
 10
         3028.046875000
 20
         3591.659179688
 30
          976.695800781
 70
    32
  0
VERTEX
  8
MESH
 62
      2
 10
         3058.386718750
 20
         3556.333496094
 30
          979.934753418
 70
    32
  0
VERTEX
  8
MESH
 62
      2
 10
         3093.726562500
 20
         3516.076171875
 30
          976.375915527
 70
    32
  0
VERTEX
  8
MESH
 62
      2
 10
         3123.117187500
 20
         3483.012207031
 30
          970.000000000
 70
    32
  0
VERTEX
  8
MESH
 62
      2
 10
         3155.156250000
 20
         3446.122558594
 30
          970.000000000
 70
    32
  0
VERTEX
  8
MESH
 62
      2
 10
         3196.546875000
 20
         3398.462402344
 30
          970.000000000
 70
    32
  0
VERTEX
  8
MESH
 62
      2
 10
         3227.710937500
 20
         3362.582519531
 30
          970.000000000
 70
    32
  0
VERTEX
  8
MESH
 62
      2
 10
         3255.097656250
 20
         3330.957519531
 30
          970.745483398
 70
    32
  0
VERTEX
  8
MESH
 62
      2
 10
         3287.855468750
 20
         3292.958984375
 30
          973.026916504
 70
    32
  0
VERTEX
  8
MESH
 62
      2
 10
         3323.156250000
 20
         3252.084472656
 30
          974.871520996
 70
    32
  0
VERTEX
  8
MESH
 62
      2
 10
         3355.085937500
 20
         3214.977539062
 30
          977.706115723
 70
    32
  0
VERTEX
  8
MESH
 62
      2
 10
         3388.632812500
 20
         3175.957519531
 30
          980.917297363
 70
    32
  0
VERTEX
  8
MESH
 62
      2
 10
         3420.039062500
 20
         3139.191406250
 30
          985.824951172
 70
    32
  0
VERTEX
  8
MESH
 62
      2
 10
         3455.750000000
 20
         3097.715332031
 30
          988.782104492
 70
    32
  0
VERTEX
  8
MESH
 62
      2
 10
         3485.894531250
 20
         3062.594238281
 30
          992.155151367
 70
    32
  0
VERTEX
  8
MESH
 62
      2
 10
         3518.125000000
 20
         3024.850097656
 30
          997.334045410
 70
    32
  0
VERTEX
  8
MESH
 62
      2
 10
         3550.878906250
 20
         2986.252929688
 30
         1004.557189941
 70
    32
  0
VERTEX
  8
MESH
 62
      2
 10
         3579.460937500
 20
         2951.080078125
 30
         1023.070739746
 70
    32
  0
VERTEX
  8
MESH
 62
      2
 10
         3612.515625000
 20
         2912.826660156
 30
         1024.655639648
 70
    32
  0
VERTEX
  8
MESH
 62
      2
 10
         3645.078125000
 20
         2875.291992188
 30
         1024.999877930
 70
    32
  0
VERTEX
  8
MESH
 62
      2
 10
         3676.820312500
 20
         2838.111816406
 30
         1030.187866211
 70
    32
  0
VERTEX
  8
MESH
 62
      2
 10
         3708.425781250
 20
         2800.354492188
 30
         1041.347656250
 70
    32
  0
VERTEX
  8
MESH
 62
      2
 10
         3738.714843750
 20
         2763.440917969
 30
         1058.003295898
 70
    32
  0
VERTEX
  8
MESH
 62
      2
 10
         3768.140625000
 20
         2727.268066406
 30
         1076.746704102
 70
    32
  0
VERTEX
  8
MESH
 62
      2
 10
         3794.687500000
 20
         2693.690429688
 30
         1101.391723633
 70
    32
  0
VERTEX
  8
MESH
 62
      2
 10
         3821.488281250
 20
         2659.771972656
 30
         1126.433715820
 70
    32
  0
VERTEX
  8
MESH
 62
      2
 10
         3851.625000000
 20
         2622.826660156
 30
         1144.788452148
 70
    32
  0
VERTEX
  8
MESH
 62
      2
 10
         3883.242187500
 20
         2585.838867188
 30
         1149.586547852
 70
    32
  0
VERTEX
  8
MESH
 62
      2
 10
         3916.484375000
 20
         2548.580078125
 30
         1141.259399414
 70
    32
  0
VERTEX
  8
MESH
 62
      2
 10
         3948.261718750
 20
         2513.486816406
 30
         1129.018920898
 70
    32
  0
VERTEX
  8
MESH
 62
      2
 10
         3981.042968750
 20
         2477.472167969
 30
         1114.868164062
 70
    32
  0
VERTEX
  8
MESH
 62
      2
 10
         4013.324218750
 20
         2441.700195312
 30
         1103.396606445
 70
    32
  0
VERTEX
  8
MESH
 62
      2
 10
         4045.363281250
 20
         2406.736328125
 30
         1087.624145508
 70
    32
  0
VERTEX
  8
MESH
 62
      2
 10
         4078.722656250
 20
         2369.184082031
 30
         1080.626342773
 70
    32
  0
VERTEX
  8
MESH
 62
      2
 10
         4111.953125000
 20
         2330.129882812
 30
         1087.095703125
 70
    32
  0
VERTEX
  8
MESH
 62
      2
 10
         4144.566406250
 20
         2293.418945312
 30
         1080.197753906
 70
    32
  0
VERTEX
  8
MESH
 62
      2
 10
         4176.906250000
 20
         2257.835937500
 30
         1066.703247070
 70
    32
  0
VERTEX
  8
MESH
 62
      2
 10
         4207.769531250
 20
         2223.910156250
 30
         1053.520019531
 70
    32
  0
VERTEX
  8
MESH
 62
      2
 10
         4240.730468750
 20
         2186.687988281
 30
         1047.508300781
 70
    32
  0
VERTEX
  8
MESH
 62
      2
 10
         4273.343750000
 20
         2149.536621094
 30
         1044.241577148
 70
    32
  0
VERTEX
  8
MESH
 62
      2
 10
         4305.121093750
 20
         2113.197265625
 30
         1042.152343750
 70
    32
  0
VERTEX
  8
MESH
 62
      2
 10
         4339.605468750
 20
         2073.755371094
 30
         1039.995605469
 70
    32
  0
VERTEX
  8
MESH
 62
      2
 10
         4373.457031250
 20
         2035.082031250
 30
         1037.525634766
 70
    32
  0
VERTEX
  8
MESH
 62
      2
 10
         4403.386718750
 20
         2002.187988281
 30
         1024.682739258
 70
    32
  0
VERTEX
  8
MESH
 62
      2
 10
         4437.367187500
 20
         1963.464843750
 30
         1021.414062500
 70
    32
  0
VERTEX
  8
MESH
 62
      2
 10
         4471.582031250
 20
         1924.417480469
 30
         1018.550537109
 70
    32
  0
SEQEND
  0
POLYLINE
  8
MESH
 62
      2
 66
     1
 10
0.0
 20
0.0
 30
0.0
 70
     8
  0
VERTEX
  8
MESH
 62
      2
 10
         3044.156250000
 20
         3649.656250000
 30
          976.316406250
 70
    32
  0
VERTEX
  8
MESH
 62
      2
 10
         3077.484375000
 20
         3610.828125000
 30
          979.999694824
 70
    32
  0
VERTEX
  8
MESH
 62
      2
 10
         3109.351562500
 20
         3574.515136719
 30
          976.888916016
 70
    32
  0
VERTEX
  8
MESH
 62
      2
 10
         3142.507812500
 20
         3537.301269531
 30
          969.020263672
 70
    32
  0
VERTEX
  8
MESH
 62
      2
 10
         3174.089843750
 20
         3500.896484375
 30
          969.369079590
 70
    32
  0
VERTEX
  8
MESH
 62
      2
 10
         3213.410156250
 20
         3455.555175781
 30
          969.933898926
 70
    32
  0
VERTEX
  8
MESH
 62
      2
 10
         3241.320312500
 20
         3423.406738281
 30
          970.000000000
 70
    32
  0
VERTEX
  8
MESH
 62
      2
 10
         3275.324218750
 20
         3384.239257812
 30
          970.122802734
 70
    32
  0
VERTEX
  8
MESH
 62
      2
 10
         3308.519531250
 20
         3345.758300781
 30
          972.248840332
 70
    32
  0
VERTEX
  8
MESH
 62
      2
 10
         3341.761718750
 20
         3307.193847656
 30
          974.621826172
 70
    32
  0
VERTEX
  8
MESH
 62
      2
 10
         3374.992187500
 20
         3268.628906250
 30
          977.068542480
 70
    32
  0
VERTEX
  8
MESH
 62
      2
 10
         3408.433593750
 20
         3229.785156250
 30
          979.855163574
 70
    32
  0
VERTEX
  8
MESH
 62
      2
 10
         3441.546875000
 20
         3191.161132812
 30
          983.879943848
 70
    32
  0
VERTEX
  8
MESH
 62
      2
 10
         3474.921875000
 20
         3152.278320312
 30
          987.614501953
 70
    32
  0
VERTEX
  8
MESH
 62
      2
 10
         3508.242187500
 20
         3113.448730469
 30
          991.431579590
 70
    32
  0
VERTEX
  8
MESH
 62
      2
 10
         3541.289062500
 20
         3074.694335938
 30
          997.173095703
 70
    32
  0
VERTEX
  8
MESH
 62
      2
 10
         3573.738281250
 20
         3036.196289062
 30
         1006.474182129
 70
    32
  0
VERTEX
  8
MESH
 62
      2
 10
         3605.308593750
 20
         2998.204101562
 30
         1019.887329102
 70
    32
  0
VERTEX
  8
MESH
 62
      2
 10
         3637.011718750
 20
         2960.216308594
 30
         1032.018188477
 70
    32
  0
VERTEX
  8
MESH
 62
      2
 10
         3670.761718750
 20
         2921.237304688
 30
         1033.029785156
 70
    32
  0
VERTEX
  8
MESH
 62
      2
 10
         3704.359375000
 20
         2882.419921875
 30
         1034.110229492
 70
    32
  0
VERTEX
  8
MESH
 62
      2
 10
         3736.964843750
 20
         2843.754394531
 30
         1043.287963867
 70
    32
  0
VERTEX
  8
MESH
 62
      2
 10
         3767.843750000
 20
         2806.120605469
 30
         1060.287597656
 70
    32
  0
VERTEX
  8
MESH
 62
      2
 10
         3796.804687500
 20
         2770.080566406
 30
         1082.342895508
 70
    32
  0
VERTEX
  8
MESH
 62
      2
 10
         3824.917968750
 20
         2734.680664062
 30
         1107.121215820
 70
    32
  0
VERTEX
  8
MESH
 62
      2
 10
         3853.164062500
 20
         2699.120117188
 30
         1132.003173828
 70
    32
  0
VERTEX
  8
MESH
 62
      2
 10
         3882.718750000
 20
         2662.555175781
 30
         1152.724731445
 70
    32
  0
VERTEX
  8
MESH
 62
      2
 10
         3915.218750000
 20
         2623.922851562
 30
         1162.619018555
 70
    32
  0
VERTEX
  8
MESH
 62
      2
 10
         3948.957031250
 20
         2585.855468750
 30
         1156.248535156
 70
    32
  0
VERTEX
  8
MESH
 62
      2
 10
         3982.066406250
 20
         2549.343261719
 30
         1143.088500977
 70
    32
  0
VERTEX
  8
MESH
 62
      2
 10
         4015.097656250
 20
         2513.207031250
 30
         1127.551757812
 70
    32
  0
VERTEX
  8
MESH
 62
      2
 10
         4048.324218750
 20
         2476.782714844
 30
         1112.552856445
 70
    32
  0
VERTEX
  8
MESH
 62
      2
 10
         4081.070312500
 20
         2441.178710938
 30
         1095.358764648
 70
    32
  0
VERTEX
  8
MESH
 62
      2
 10
         4114.621093750
 20
         2403.407714844
 30
         1088.300292969
 70
    32
  0
VERTEX
  8
MESH
 62
      2
 10
         4148.058593750
 20
         2364.556640625
 30
         1091.184204102
 70
    32
  0
VERTEX
  8
MESH
 62
      2
 10
         4181.421875000
 20
         2326.901367188
 30
         1084.933227539
 70
    32
  0
VERTEX
  8
MESH
 62
      2
 10
         4214.402343750
 20
         2290.679199219
 30
         1070.592285156
 70
    32
  0
VERTEX
  8
MESH
 62
      2
 10
         4247.789062500
 20
         2253.905273438
 30
         1056.930664062
 70
    32
  0
VERTEX
  8
MESH
 62
      2
 10
         4280.832031250
 20
         2216.999511719
 30
         1047.598266602
 70
    32
  0
VERTEX
  8
MESH
 62
      2
 10
         4314.496093750
 20
         2178.654785156
 30
         1044.203247070
 70
    32
  0
VERTEX
  8
MESH
 62
      2
 10
         4346.996093750
 20
         2141.479980469
 30
         1042.187866211
 70
    32
  0
VERTEX
  8
MESH
 62
      2
 10
         4381.351562500
 20
         2102.179687500
 30
         1040.082641602
 70
    32
  0
VERTEX
  8
MESH
 62
      2
 10
         4413.886718750
 20
         2065.666503906
 30
         1032.301025391
 70
    32
  0
VERTEX
  8
MESH
 62
      2
 10
         4447.429687500
 20
         2028.151367188
 30
         1023.247253418
 70
    32
  0
VERTEX
  8
MESH
 62
      2
 10
         4480.253906250
 20
         1990.749511719
 30
         1020.036254883
 70
    32
  0
VERTEX
  8
MESH
 62
      2
 10
         4512.750000000
 20
         1953.649902344
 30
         1017.414794922
 70
    32
  0
SEQEND
  0
POLYLINE
  8
MESH
 62
      2
 66
     1
 10
0.0
 20
0.0
 30
0.0
 70
     8
  0
VERTEX
  8
MESH
 62
      2
 10
         3060.261718750
 20
         3707.653320312
 30
          975.937011719
 70
    32
  0
VERTEX
  8
MESH
 62
      2
 10
         3091.109375000
 20
         3671.643066406
 30
          979.940979004
 70
    32
  0
VERTEX
  8
MESH
 62
      2
 10
         3125.937500000
 20
         3631.912109375
 30
          976.932800293
 70
    32
  0
VERTEX
  8
MESH
 62
      2
 10
         3159.378906250
 20
         3594.868164062
 30
          965.001831055
 70
    32
  0
VERTEX
  8
MESH
 62
      2
 10
         3193.039062500
 20
         3555.981933594
 30
          966.008605957
 70
    32
  0
VERTEX
  8
MESH
 62
      2
 10
         3225.621093750
 20
         3518.370605469
 30
          966.800781250
 70
    32
  0
VERTEX
  8
MESH
 62
      2
 10
         3258.089843750
 20
         3480.916992188
 30
          967.365234375
 70
    32
  0
VERTEX
  8
MESH
 62
      2
 10
         3292.472656250
 20
         3441.124511719
 30
          969.018920898
 70
    32
  0
VERTEX
  8
MESH
 62
      2
 10
         3323.898437500
 20
         3404.670898438
 30
          971.246154785
 70
    32
  0
VERTEX
  8
MESH
 62
      2
 10
         3358.199218750
 20
         3364.903808594
 30
          973.453430176
 70
    32
  0
VERTEX
  8
MESH
 62
      2
 10
         3392.398437500
 20
         3325.249511719
 30
          975.741027832
 70
    32
  0
VERTEX
  8
MESH
 62
      2
 10
         3423.996093750
 20
         3288.508789062
 30
          978.671081543
 70
    32
  0
VERTEX
  8
MESH
 62
      2
 10
         3459.699218750
 20
         3246.943359375
 30
          982.400817871
 70
    32
  0
VERTEX
  8
MESH
 62
      2
 10
         3489.703125000
 20
         3211.983886719
 30
          985.739135742
 70
    32
  0
VERTEX
  8
MESH
 62
      2
 10
         3523.941406250
 20
         3172.068847656
 30
          989.774475098
 70
    32
  0
VERTEX
  8
MESH
 62
      2
 10
         3556.613281250
 20
         3133.890625000
 30
          994.359985352
 70
    32
  0
VERTEX
  8
MESH
 62
      2
 10
         3589.542968750
 20
         3095.246582031
 30
         1000.292358398
 70
    32
  0
VERTEX
  8
MESH
 62
      2
 10
         3622.000000000
 20
         3056.753417969
 30
         1009.471923828
 70
    32
  0
VERTEX
  8
MESH
 62
      2
 10
         3652.085937500
 20
         3020.044433594
 30
         1026.410522461
 70
    32
  0
VERTEX
  8
MESH
 62
      2
 10
         3682.109375000
 20
         2983.155273438
 30
         1045.392822266
 70
    32
  0
VERTEX
  8
MESH
 62
      2
 10
         3715.136718750
 20
         2945.017089844
 30
         1046.274169922
 70
    32
  0
VERTEX
  8
MESH
 62
      2
 10
         3748.496093750
 20
         2906.807617188
 30
         1044.656616211
 70
    32
  0
VERTEX
  8
MESH
 62
      2
 10
         3781.105468750
 20
         2868.319335938
 30
         1052.333618164
 70
    32
  0
VERTEX
  8
MESH
 62
      2
 10
         3812.039062500
 20
         2830.898437500
 30
         1067.088867188
 70
    32
  0
VERTEX
  8
MESH
 62
      2
 10
         3839.941406250
 20
         2795.761718750
 30
         1091.715820312
 70
    32
  0
VERTEX
  8
MESH
 62
      2
 10
         3866.855468750
 20
         2761.552246094
 30
         1118.048461914
 70
    32
  0
VERTEX
  8
MESH
 62
      2
 10
         3894.515625000
 20
         2726.663085938
 30
         1142.955932617
 70
    32
  0
VERTEX
  8
MESH
 62
      2
 10
         3922.726562500
 20
         2691.280761719
 30
         1166.666015625
 70
    32
  0
VERTEX
  8
MESH
 62
      2
 10
         3956.531250000
 20
         2650.967773438
 30
         1178.035278320
 70
    32
  0
VERTEX
  8
MESH
 62
      2
 10
         3993.050781250
 20
         2609.339355469
 30
         1174.572998047
 70
    32
  0
VERTEX
  8
MESH
 62
      2
 10
         4025.289062500
 20
         2574.569335938
 30
         1155.370483398
 70
    32
  0
VERTEX
  8
MESH
 62
      2
 10
         4057.914062500
 20
         2538.900878906
 30
         1139.818115234
 70
    32
  0
VERTEX
  8
MESH
 62
      2
 10
         4089.371093750
 20
         2505.160156250
 30
         1119.575195312
 70
    32
  0
VERTEX
  8
MESH
 62
      2
 10
         4122.398437500
 20
         2469.077148438
 30
         1103.600952148
 70
    32
  0
VERTEX
  8
MESH
 62
      2
 10
         4155.820312500
 20
         2431.614257812
 30
         1095.257568359
 70
    32
  0
VERTEX
  8
MESH
 62
      2
 10
         4188.953125000
 20
         2393.548339844
 30
         1094.608154297
 70
    32
  0
VERTEX
  8
MESH
 62
      2
 10
         4222.343750000
 20
         2356.578125000
 30
         1082.520141602
 70
    32
  0
VERTEX
  8
MESH
 62
      2
 10
         4255.000000000
 20
         2320.708984375
 30
         1068.294311523
 70
    32
  0
VERTEX
  8
MESH
 62
      2
 10
         4287.570312500
 20
         2284.960937500
 30
         1053.932128906
 70
    32
  0
VERTEX
  8
MESH
 62
      2
 10
         4320.843750000
 20
         2247.811523438
 30
         1044.453247070
 70
    32
  0
VERTEX
  8
MESH
 62
      2
 10
         4354.210937500
 20
         2209.732421875
 30
         1041.664306641
 70
    32
  0
VERTEX
  8
MESH
 62
      2
 10
         4388.253906250
 20
         2170.709960938
 30
         1040.244018555
 70
    32
  0
VERTEX
  8
MESH
 62
      2
 10
         4421.507812500
 20
         2132.663085938
 30
         1038.231323242
 70
    32
  0
VERTEX
  8
MESH
 62
      2
 10
         4454.386718750
 20
         2096.218750000
 30
         1026.666137695
 70
    32
  0
VERTEX
  8
MESH
 62
      2
 10
         4486.835937500
 20
         2059.407714844
 30
         1022.156921387
 70
    32
  0
VERTEX
  8
MESH
 62
      2
 10
         4520.035156250
 20
         2021.565429688
 30
         1018.986083984
 70
    32
  0
VERTEX
  8
MESH
 62
      2
 10
         4553.921875000
 20
         1982.882324219
 30
         1016.279052734
 70
    32
  0
SEQEND
  0
POLYLINE
  8
MESH
 62
      2
 66
     1
 10
0.0
 20
0.0
 30
0.0
 70
     8
  0
VERTEX
  8
MESH
 62
      2
 10
         3076.371093750
 20
         3765.650390625
 30
          975.557678223
 70
    32
  0
VERTEX
  8
MESH
 62
      2
 10
         3109.003906250
 20
         3727.529296875
 30
          979.999938965
 70
    32
  0
VERTEX
  8
MESH
 62
      2
 10
         3141.011718750
 20
         3690.970214844
 30
          977.618164062
 70
    32
  0
VERTEX
  8
MESH
 62
      2
 10
         3174.250000000
 20
         3654.238281250
 30
          965.000000000
 70
    32
  0
VERTEX
  8
MESH
 62
      2
 10
         3209.371093750
 20
         3613.798339844
 30
          965.000000000
 70
    32
  0
VERTEX
  8
MESH
 62
      2
 10
         3240.117187500
 20
         3578.396484375
 30
          965.000671387
 70
    32
  0
VERTEX
  8
MESH
 62
      2
 10
         3270.890625000
 20
         3542.934570312
 30
          965.247802734
 70
    32
  0
VERTEX
  8
MESH
 62
      2
 10
         3308.003906250
 20
         3499.910644531
 30
          967.607788086
 70
    32
  0
VERTEX
  8
MESH
 62
      2
 10
         3338.390625000
 20
         3464.687988281
 30
          969.553039551
 70
    32
  0
VERTEX
  8
MESH
 62
      2
 10
         3370.355468750
 20
         3427.566406250
 30
          972.120056152
 70
    32
  0
VERTEX
  8
MESH
 62
      2
 10
         3404.792968750
 20
         3387.559082031
 30
          975.015014648
 70
    32
  0
VERTEX
  8
MESH
 62
      2
 10
         3439.867187500
 20
         3346.795410156
 30
          978.118164062
 70
    32
  0
VERTEX
  8
MESH
 62
      2
 10
         3470.656250000
 20
         3311.005371094
 30
          980.921142578
 70
    32
  0
VERTEX
  8
MESH
 62
      2
 10
         3502.667968750
 20
         3273.790039062
 30
          983.777709961
 70
    32
  0
VERTEX
  8
MESH
 62
      2
 10
         3536.527343750
 20
         3234.317871094
 30
          987.797424316
 70
    32
  0
VERTEX
  8
MESH
 62
      2
 10
         3567.968750000
 20
         3197.613281250
 30
          991.883300781
 70
    32
  0
VERTEX
  8
MESH
 62
      2
 10
         3600.457031250
 20
         3159.617675781
 30
          996.728149414
 70
    32
  0
VERTEX
  8
MESH
 62
      2
 10
         3632.476562500
 20
         3122.058105469
 30
         1002.375488281
 70
    32
  0
VERTEX
  8
MESH
 62
      2
 10
         3664.664062500
 20
         3083.819335938
 30
         1012.010131836
 70
    32
  0
VERTEX
  8
MESH
 62
      2
 10
         3693.726562500
 20
         3047.856445312
 30
         1032.436035156
 70
    32
  0
VERTEX
  8
MESH
 62
      2
 10
         3723.312500000
 20
         3011.572265625
 30
         1050.585327148
 70
    32
  0
VERTEX
  8
MESH
 62
      2
 10
         3755.777343750
 20
         2973.349121094
 30
         1057.484497070
 70
    32
  0
VERTEX
  8
MESH
 62
      2
 10
         3788.761718750
 20
         2935.416503906
 30
         1057.119506836
 70
    32
  0
VERTEX
  8
MESH
 62
      2
 10
         3820.171875000
 20
         2897.822265625
 30
         1068.808837891
 70
    32
  0
VERTEX
  8
MESH
 62
      2
 10
         3850.566406250
 20
         2860.862792969
 30
         1084.882080078
 70
    32
  0
VERTEX
  8
MESH
 62
      2
 10
         3880.531250000
 20
         2824.412109375
 30
         1100.828491211
 70
    32
  0
VERTEX
  8
MESH
 62
      2
 10
         3906.992187500
 20
         2790.641601562
 30
         1127.811157227
 70
    32
  0
VERTEX
  8
MESH
 62
      2
 10
         3933.144531250
 20
         2757.197265625
 30
         1155.088256836
 70
    32
  0
VERTEX
  8
MESH
 62
      2
 10
         3961.882812500
 20
         2721.517089844
 30
         1176.277099609
 70
    32
  0
VERTEX
  8
MESH
 62
      2
 10
         3989.968750000
 20
         2688.074707031
 30
         1185.328735352
 70
    32
  0
VERTEX
  8
MESH
 62
      2
 10
         4011.542968750
 20
         2664.602539062
 30
         1174.100463867
 70
    32
  0
VERTEX
  8
MESH
 62
      2
 10
         4041.660156250
 20
         2628.288574219
 30
         1187.532104492
 70
    32
  0
VERTEX
  8
MESH
 62
      2
 10
         4072.066406250
 20
         2596.230468750
 30
         1163.319213867
 70
    32
  0
VERTEX
  8
MESH
 62
      2
 10
         4103.847656250
 20
         2561.888671875
 30
         1144.889770508
 70
    32
  0
VERTEX
  8
MESH
 62
      2
 10
         4134.734375000
 20
         2529.028808594
 30
         1122.786743164
 70
    32
  0
VERTEX
  8
MESH
 62
      2
 10
         4166.984375000
 20
         2493.881347656
 30
         1106.532714844
 70
    32
  0
VERTEX
  8
MESH
 62
      2
 10
         4199.730468750
 20
         2457.281250000
 30
         1097.530639648
 70
    32
  0
VERTEX
  8
MESH
 62
      2
 10
         4233.332031250
 20
         2419.787597656
 30
         1087.679199219
 70
    32
  0
VERTEX
  8
MESH
 62
      2
 10
         4266.121093750
 20
         2383.556152344
 30
         1075.271850586
 70
    32
  0
VERTEX
  8
MESH
 62
      2
 10
         4298.222656250
 20
         2348.432617188
 30
         1060.169555664
 70
    32
  0
VERTEX
  8
MESH
 62
      2
 10
         4331.566406250
 20
         2311.473632812
 30
         1048.469482422
 70
    32
  0
VERTEX
  8
MESH
 62
      2
 10
         4363.714843750
 20
         2275.241699219
 30
         1042.038208008
 70
    32
  0
VERTEX
  8
MESH
 62
      2
 10
         4397.882812500
 20
         2236.322753906
 30
         1038.571166992
 70
    32
  0
VERTEX
  8
MESH
 62
      2
 10
         4429.351562500
 20
         2200.273437500
 30
         1037.090820312
 70
    32
  0
VERTEX
  8
MESH
 62
      2
 10
         4462.597656250
 20
         2162.307617188
 30
         1034.481079102
 70
    32
  0
VERTEX
  8
MESH
 62
      2
 10
         4494.304687500
 20
         2127.006347656
 30
         1024.602539062
 70
    32
  0
VERTEX
  8
MESH
 62
      2
 10
         4530.531250000
 20
         2085.761230469
 30
         1020.753356934
 70
    32
  0
VERTEX
  8
MESH
 62
      2
 10
         4562.246093750
 20
         2049.618164062
 30
         1017.701354980
 70
    32
  0
VERTEX
  8
MESH
 62
      2
 10
         4595.089843750
 20
         2012.114746094
 30
         1015.143371582
 70
    32
  0
SEQEND
  0
POLYLINE
  8
MESH
 62
      2
 66
     1
 10
0.0
 20
0.0
 30
0.0
 70
     8
  0
VERTEX
  8
MESH
 62
      2
 10
         3092.476562500
 20
         3823.647949219
 30
          975.178283691
 70
    32
  0
VERTEX
  8
MESH
 62
      2
 10
         3124.468750000
 20
         3786.225097656
 30
          979.998901367
 70
    32
  0
VERTEX
  8
MESH
 62
      2
 10
         3158.085937500
 20
         3747.819335938
 30
          977.503662109
 70
    32
  0
VERTEX
  8
MESH
 62
      2
 10
         3191.453125000
 20
         3710.926269531
 30
          965.046875000
 70
    32
  0
VERTEX
  8
MESH
 62
      2
 10
         3226.496093750
 20
         3670.575683594
 30
          965.000000000
 70
    32
  0
VERTEX
  8
MESH
 62
      2
 10
         3257.800781250
 20
         3634.534179688
 30
          965.000000000
 70
    32
  0
VERTEX
  8
MESH
 62
      2
 10
         3290.445312500
 20
         3596.946289062
 30
          965.000000000
 70
    32
  0
VERTEX
  8
MESH
 62
      2
 10
         3319.281250000
 20
         3563.648925781
 30
          965.744201660
 70
    32
  0
VERTEX
  8
MESH
 62
      2
 10
         3358.648437500
 20
         3518.005371094
 30
          968.367004395
 70
    32
  0
VERTEX
  8
MESH
 62
      2
 10
         3386.566406250
 20
         3485.626464844
 30
          970.269592285
 70
    32
  0
VERTEX
  8
MESH
 62
      2
 10
         3423.628906250
 20
         3442.558593750
 30
          973.464233398
 70
    32
  0
VERTEX
  8
MESH
 62
      2
 10
         3455.039062500
 20
         3406.028320312
 30
          976.446533203
 70
    32
  0
VERTEX
  8
MESH
 62
      2
 10
         3487.667968750
 20
         3368.057617188
 30
          979.731323242
 70
    32
  0
VERTEX
  8
MESH
 62
      2
 10
         3520.054687500
 20
         3330.277343750
 30
          983.719482422
 70
    32
  0
VERTEX
  8
MESH
 62
      2
 10
         3553.074218750
 20
         3291.839355469
 30
          987.178283691
 70
    32
  0
VERTEX
  8
MESH
 62
      2
 10
         3585.433593750
 20
         3254.142089844
 30
          990.712036133
 70
    32
  0
VERTEX
  8
MESH
 62
      2
 10
         3617.851562500
 20
         3216.304199219
 30
          994.934631348
 70
    32
  0
VERTEX
  8
MESH
 62
      2
 10
         3649.968750000
 20
         3178.632324219
 30
         1000.572448730
 70
    32
  0
VERTEX
  8
MESH
 62
      2
 10
         3682.414062500
 20
         3140.451660156
 30
         1007.321594238
 70
    32
  0
VERTEX
  8
MESH
 62
      2
 10
         3712.746093750
 20
         3103.971191406
 30
         1020.023864746
 70
    32
  0
VERTEX
  8
MESH
 62
      2
 10
         3741.488281250
 20
         3068.327148438
 30
         1040.893676758
 70
    32
  0
VERTEX
  8
MESH
 62
      2
 10
         3771.574218750
 20
         3031.837890625
 30
         1056.028442383
 70
    32
  0
VERTEX
  8
MESH
 62
      2
 10
         3803.558593750
 20
         2994.317382812
 30
         1061.698608398
 70
    32
  0
VERTEX
  8
MESH
 62
      2
 10
         3834.972656250
 20
         2956.846191406
 30
         1072.332641602
 70
    32
  0
VERTEX
  8
MESH
 62
      2
 10
         3864.863281250
 20
         2920.462402344
 30
         1088.420776367
 70
    32
  0
VERTEX
  8
MESH
 62
      2
 10
         3894.496093750
 20
         2884.263183594
 30
         1105.436401367
 70
    32
  0
VERTEX
  8
MESH
 62
      2
 10
         3924.691406250
 20
         2847.664550781
 30
         1120.441772461
 70
    32
  0
VERTEX
  8
MESH
 62
      2
 10
         3954.550781250
 20
         2812.763671875
 30
         1124.659057617
 70
    32
  0
VERTEX
  8
MESH
 62
      2
 10
         3970.371093750
 20
         2790.220214844
 30
         1160.077270508
 70
    32
  0
VERTEX
  8
MESH
 62
      2
 10
         3997.855468750
 20
         2755.665527344
 30
         1183.877075195
 70
    32
  0
VERTEX
  8
MESH
 62
      2
 10
         4027.156250000
 20
         2720.278808594
 30
         1197.359375000
 70
    32
  0
VERTEX
  8
MESH
 62
      2
 10
         4062.558593750
 20
         2681.424804688
 30
         1181.756225586
 70
    32
  0
VERTEX
  8
MESH
 62
      2
 10
         4084.281250000
 20
         2654.561035156
 30
         1196.887084961
 70
    32
  0
VERTEX
  8
MESH
 62
      2
 10
         4113.742187500
 20
         2623.816406250
 30
         1170.885986328
 70
    32
  0
VERTEX
  8
MESH
 62
      2
 10
         4143.726562500
 20
         2592.302734375
 30
         1146.287475586
 70
    32
  0
VERTEX
  8
MESH
 62
      2
 10
         4175.097656250
 20
         2558.608886719
 30
         1126.391235352
 70
    32
  0
VERTEX
  8
MESH
 62
      2
 10
         4207.234375000
 20
         2523.504394531
 30
         1110.858032227
 70
    32
  0
VERTEX
  8
MESH
 62
      2
 10
         4239.898437500
 20
         2487.262207031
 30
         1099.654052734
 70
    32
  0
VERTEX
  8
MESH
 62
      2
 10
         4272.710937500
 20
         2450.793945312
 30
         1088.934204102
 70
    32
  0
VERTEX
  8
MESH
 62
      2
 10
         4305.019531250
 20
         2415.490722656
 30
         1073.366210938
 70
    32
  0
VERTEX
  8
MESH
 62
      2
 10
         4336.929687500
 20
         2380.770507812
 30
         1056.853759766
 70
    32
  0
VERTEX
  8
MESH
 62
      2
 10
         4370.890625000
 20
         2342.886718750
 30
         1046.855834961
 70
    32
  0
VERTEX
  8
MESH
 62
      2
 10
         4403.484375000
 20
         2306.040039062
 30
         1041.279296875
 70
    32
  0
VERTEX
  8
MESH
 62
      2
 10
         4437.156250000
 20
         2267.844238281
 30
         1036.538818359
 70
    32
  0
VERTEX
  8
MESH
 62
      2
 10
         4469.042968750
 20
         2231.506835938
 30
         1033.439208984
 70
    32
  0
VERTEX
  8
MESH
 62
      2
 10
         4503.359375000
 20
         2192.324707031
 30
         1030.737304688
 70
    32
  0
VERTEX
  8
MESH
 62
      2
 10
         4535.355468750
 20
         2156.365234375
 30
         1023.527893066
 70
    32
  0
VERTEX
  8
MESH
 62
      2
 10
         4568.308593750
 20
         2118.869140625
 30
         1019.901489258
 70
    32
  0
VERTEX
  8
MESH
 62
      2
 10
         4602.828125000
 20
         2079.533691406
 30
         1016.512390137
 70
    32
  0
VERTEX
  8
MESH
 62
      2
 10
         4636.257812500
 20
         2041.347167969
 30
         1014.007629395
 70
    32
  0
SEQEND
  0
POLYLINE
  8
MESH
 62
      2
 66
     1
 10
0.0
 20
0.0
 30
0.0
 70
     8
  0
VERTEX
  8
MESH
 62
      2
 10
         3108.585937500
 20
         3881.645019531
 30
          974.798889160
 70
    32
  0
VERTEX
  8
MESH
 62
      2
 10
         3138.929687500
 20
         3846.074218750
 30
          979.951904297
 70
    32
  0
VERTEX
  8
MESH
 62
      2
 10
         3173.804687500
 20
         3806.163574219
 30
          977.930541992
 70
    32
  0
VERTEX
  8
MESH
 62
      2
 10
         3206.378906250
 20
         3770.233886719
 30
          965.004211426
 70
    32
  0
VERTEX
  8
MESH
 62
      2
 10
         3238.750000000
 20
         3732.964355469
 30
          965.000000000
 70
    32
  0
VERTEX
  8
MESH
 62
      2
 10
         3269.644531250
 20
         3697.390625000
 30
          965.000000000
 70
    32
  0
VERTEX
  8
MESH
 62
      2
 10
         3310.980468750
 20
         3649.794921875
 30
          965.000000000
 70
    32
  0
VERTEX
  8
MESH
 62
      2
 10
         3338.156250000
 20
         3618.494628906
 30
          965.066101074
 70
    32
  0
VERTEX
  8
MESH
 62
      2
 10
         3369.531250000
 20
         3582.208984375
 30
          966.416137695
 70
    32
  0
VERTEX
  8
MESH
 62
      2
 10
         3408.960937500
 20
         3536.445800781
 30
          969.358215332
 70
    32
  0
VERTEX
  8
MESH
 62
      2
 10
         3437.562500000
 20
         3503.214843750
 30
          971.842590332
 70
    32
  0
VERTEX
  8
MESH
 62
      2
 10
         3471.289062500
 20
         3463.995605469
 30
          974.925903320
 70
    32
  0
VERTEX
  8
MESH
 62
      2
 10
         3503.046875000
 20
         3427.032714844
 30
          978.201416016
 70
    32
  0
VERTEX
  8
MESH
 62
      2
 10
         3535.972656250
 20
         3388.640625000
 30
          982.149536133
 70
    32
  0
VERTEX
  8
MESH
 62
      2
 10
         3568.769531250
 20
         3350.305175781
 30
          986.827148438
 70
    32
  0
VERTEX
  8
MESH
 62
      2
 10
         3601.320312500
 20
         3312.307617188
 30
          991.044982910
 70
    32
  0
VERTEX
  8
MESH
 62
      2
 10
         3634.593750000
 20
         3273.554199219
 30
          994.672119141
 70
    32
  0
VERTEX
  8
MESH
 62
      2
 10
         3667.558593750
 20
         3235.127929688
 30
          998.515808105
 70
    32
  0
VERTEX
  8
MESH
 62
      2
 10
         3700.046875000
 20
         3197.163085938
 30
         1003.084533691
 70
    32
  0
VERTEX
  8
MESH
 62
      2
 10
         3732.796875000
 20
         3158.521972656
 30
         1010.716796875
 70
    32
  0
VERTEX
  8
MESH
 62
      2
 10
         3762.789062500
 20
         3121.779296875
 30
         1028.777954102
 70
    32
  0
VERTEX
  8
MESH
 62
      2
 10
         3792.105468750
 20
         3085.585449219
 30
         1048.726318359
 70
    32
  0
VERTEX
  8
MESH
 62
      2
 10
         3823.863281250
 20
         3047.592773438
 30
         1060.393798828
 70
    32
  0
VERTEX
  8
MESH
 62
      2
 10
         3855.562500000
 20
         3009.717773438
 30
         1071.658935547
 70
    32
  0
VERTEX
  8
MESH
 62
      2
 10
         3886.292968750
 20
         2972.398437500
 30
         1087.479370117
 70
    32
  0
VERTEX
  8
MESH
 62
      2
 10
         3916.070312500
 20
         2935.796875000
 30
         1106.438842773
 70
    32
  0
VERTEX
  8
MESH
 62
      2
 10
         3944.730468750
 20
         2900.068847656
 30
         1128.759765625
 70
    32
  0
VERTEX
  8
MESH
 62
      2
 10
         3976.085937500
 20
         2863.092285156
 30
         1135.909667969
 70
    32
  0
VERTEX
  8
MESH
 62
      2
 10
         4005.101562500
 20
         2832.175292969
 30
         1115.529907227
 70
    32
  0
VERTEX
  8
MESH
 62
      2
 10
         4027.003906250
 20
         2802.902832031
 30
         1148.678955078
 70
    32
  0
VERTEX
  8
MESH
 62
      2
 10
         4036.613281250
 20
         2786.397460938
 30
         1193.194335938
 70
    32
  0
VERTEX
  8
MESH
 62
      2
 10
         4066.855468750
 20
         2749.026855469
 30
         1214.069335938
 70
    32
  0
VERTEX
  8
MESH
 62
      2
 10
         4092.785156250
 20
         2721.046386719
 30
         1198.706542969
 70
    32
  0
VERTEX
  8
MESH
 62
      2
 10
         4100.917968750
 20
         2709.442871094
 30
         1217.029785156
 70
    32
  0
VERTEX
  8
MESH
 62
      2
 10
         4125.824218750
 20
         2681.895996094
 30
         1207.782958984
 70
    32
  0
VERTEX
  8
MESH
 62
      2
 10
         4156.406250000
 20
         2649.778808594
 30
         1182.449829102
 70
    32
  0
VERTEX
  8
MESH
 62
      2
 10
         4186.683593750
 20
         2618.023437500
 30
         1157.004882812
 70
    32
  0
VERTEX
  8
MESH
 62
      2
 10
         4218.984375000
 20
         2582.868164062
 30
         1140.357910156
 70
    32
  0
VERTEX
  8
MESH
 62
      2
 10
         4251.468750000
 20
         2547.481445312
 30
         1123.833984375
 70
    32
  0
VERTEX
  8
MESH
 62
      2
 10
         4284.136718750
 20
         2511.546386719
 30
         1110.122192383
 70
    32
  0
VERTEX
  8
MESH
 62
      2
 10
         4317.179687500
 20
         2474.677734375
 30
         1100.460815430
 70
    32
  0
VERTEX
  8
MESH
 62
      2
 10
         4348.613281250
 20
         2441.071777344
 30
         1079.282470703
 70
    32
  0
VERTEX
  8
MESH
 62
      2
 10
         4379.777343750
 20
         2407.628417969
 30
         1059.347045898
 70
    32
  0
VERTEX
  8
MESH
 62
      2
 10
         4412.460937500
 20
         2371.712402344
 30
         1045.249877930
 70
    32
  0
VERTEX
  8
MESH
 62
      2
 10
         4445.011718750
 20
         2334.977050781
 30
         1039.159301758
 70
    32
  0
VERTEX
  8
MESH
 62
      2
 10
         4477.359375000
 20
         2298.318847656
 30
         1034.397949219
 70
    32
  0
VERTEX
  8
MESH
 62
      2
 10
         4512.593750000
 20
         2258.239746094
 30
         1030.358764648
 70
    32
  0
VERTEX
  8
MESH
 62
      2
 10
         4544.347656250
 20
         2221.860351562
 30
         1028.836669922
 70
    32
  0
VERTEX
  8
MESH
 62
      2
 10
         4579.289062500
 20
         2182.450683594
 30
         1022.125000000
 70
    32
  0
VERTEX
  8
MESH
 62
      2
 10
         4609.828125000
 20
         2147.708984375
 30
         1018.660400391
 70
    32
  0
VERTEX
  8
MESH
 62
      2
 10
         4645.484375000
 20
         2107.083496094
 30
         1015.160583496
 70
    32
  0
VERTEX
  8
MESH
 62
      2
 10
         4677.429687500
 20
         2070.579589844
 30
         1012.871948242
 70
    32
  0
SEQEND
  0
POLYLINE
  8
MESH
 62
      2
 66
     1
 10
0.0
 20
0.0
 30
0.0
 70
     8
  0
VERTEX
  8
MESH
 62
      2
 10
         3124.691406250
 20
         3939.642089844
 30
          974.419555664
 70
    32
  0
VERTEX
  8
MESH
 62
      2
 10
         3156.105468750
 20
         3902.790527344
 30
          979.994934082
 70
    32
  0
VERTEX
  8
MESH
 62
      2
 10
         3190.792968750
 20
         3863.111816406
 30
          977.832519531
 70
    32
  0
VERTEX
  8
MESH
 62
      2
 10
         3223.652343750
 20
         3826.837402344
 30
          965.056335449
 70
    32
  0
VERTEX
  8
MESH
 62
      2
 10
         3252.070312500
 20
         3794.125976562
 30
          965.000000000
 70
    32
  0
VERTEX
  8
MESH
 62
      2
 10
         3284.097656250
 20
         3757.248046875
 30
          965.000000000
 70
    32
  0
VERTEX
  8
MESH
 62
      2
 10
         3325.789062500
 20
         3709.240722656
 30
          965.000000000
 70
    32
  0
VERTEX
  8
MESH
 62
      2
 10
         3355.824218750
 20
         3674.660644531
 30
          965.000000000
 70
    32
  0
VERTEX
  8
MESH
 62
      2
 10
         3388.460937500
 20
         3637.079589844
 30
          965.020690918
 70
    32
  0
VERTEX
  8
MESH
 62
      2
 10
         3421.812500000
 20
         3598.343261719
 30
          967.745666504
 70
    32
  0
VERTEX
  8
MESH
 62
      2
 10
         3454.003906250
 20
         3560.990234375
 30
          970.118408203
 70
    32
  0
VERTEX
  8
MESH
 62
      2
 10
         3487.949218750
 20
         3521.507812500
 30
          973.375427246
 70
    32
  0
VERTEX
  8
MESH
 62
      2
 10
         3520.437500000
 20
         3483.671875000
 30
          976.836364746
 70
    32
  0
VERTEX
  8
MESH
 62
      2
 10
         3552.144531250
 20
         3446.720703125
 30
          980.447082520
 70
    32
  0
VERTEX
  8
MESH
 62
      2
 10
         3585.906250000
 20
         3407.348144531
 30
          984.532409668
 70
    32
  0
VERTEX
  8
MESH
 62
      2
 10
         3618.019531250
 20
         3369.876464844
 30
          988.618896484
 70
    32
  0
VERTEX
  8
MESH
 62
      2
 10
         3650.394531250
 20
         3332.074218750
 30
          992.908813477
 70
    32
  0
VERTEX
  8
MESH
 62
      2
 10
         3682.562500000
 20
         3294.476074219
 30
          997.456054688
 70
    32
  0
VERTEX
  8
MESH
 62
      2
 10
         3715.199218750
 20
         3256.320800781
 30
         1002.177307129
 70
    32
  0
VERTEX
  8
MESH
 62
      2
 10
         3747.671875000
 20
         3218.364746094
 30
         1006.836364746
 70
    32
  0
VERTEX
  8
MESH
 62
      2
 10
         3779.449218750
 20
         3180.807617188
 30
         1014.739379883
 70
    32
  0
VERTEX
  8
MESH
 62
      2
 10
         3809.710937500
 20
         3144.271484375
 30
         1028.567749023
 70
    32
  0
VERTEX
  8
MESH
 62
      2
 10
         3840.046875000
 20
         3107.495117188
 30
         1043.702880859
 70
    32
  0
VERTEX
  8
MESH
 62
      2
 10
         3870.085937500
 20
         3071.000488281
 30
         1059.311157227
 70
    32
  0
VERTEX
  8
MESH
 62
      2
 10
         3899.335937500
 20
         3035.167968750
 30
         1076.940307617
 70
    32
  0
VERTEX
  8
MESH
 62
      2
 10
         3928.187500000
 20
         2999.563964844
 30
         1096.430541992
 70
    32
  0
VERTEX
  8
MESH
 62
      2
 10
         3956.785156250
 20
         2964.212402344
 30
         1116.279785156
 70
    32
  0
VERTEX
  8
MESH
 62
      2
 10
         3984.597656250
 20
         2929.492675781
 30
         1138.346679688
 70
    32
  0
VERTEX
  8
MESH
 62
      2
 10
         4016.285156250
 20
         2892.984863281
 30
         1138.501953125
 70
    32
  0
VERTEX
  8
MESH
 62
      2
 10
         4034.105468750
 20
         2877.486816406
 30
         1097.443969727
 70
    32
  0
VERTEX
  8
MESH
 62
      2
 10
         4061.187500000
 20
         2843.478027344
 30
         1120.538452148
 70
    32
  0
VERTEX
  8
MESH
 62
      2
 10
         4075.816406250
 20
         2822.065429688
 30
         1157.932983398
 70
    32
  0
VERTEX
  8
MESH
 62
      2
 10
         4083.785156250
 20
         2807.384277344
 30
         1202.984130859
 70
    32
  0
VERTEX
  8
MESH
 62
      2
 10
         4107.945312500
 20
         2776.000976562
 30
         1232.151733398
 70
    32
  0
VERTEX
  8
MESH
 62
      2
 10
         4138.605468750
 20
         2739.484863281
 30
         1242.078002930
 70
    32
  0
VERTEX
  8
MESH
 62
      2
 10
         4170.285156250
 20
         2705.153808594
 30
         1224.500488281
 70
    32
  0
VERTEX
  8
MESH
 62
      2
 10
         4200.613281250
 20
         2673.058593750
 30
         1201.397094727
 70
    32
  0
VERTEX
  8
MESH
 62
      2
 10
         4231.527343750
 20
         2640.119140625
 30
         1179.700683594
 70
    32
  0
VERTEX
  8
MESH
 62
      2
 10
         4261.683593750
 20
         2608.380371094
 30
         1155.256835938
 70
    32
  0
VERTEX
  8
MESH
 62
      2
 10
         4292.816406250
 20
         2575.106933594
 30
         1134.162597656
 70
    32
  0
VERTEX
  8
MESH
 62
      2
 10
         4323.972656250
 20
         2541.727050781
 30
         1113.772705078
 70
    32
  0
VERTEX
  8
MESH
 62
      2
 10
         4356.343750000
 20
         2506.222656250
 30
         1099.294189453
 70
    32
  0
VERTEX
  8
MESH
 62
      2
 10
         4387.347656250
 20
         2473.145996094
 30
         1077.809326172
 70
    32
  0
VERTEX
  8
MESH
 62
      2
 10
         4419.160156250
 20
         2438.779785156
 30
         1059.332519531
 70
    32
  0
VERTEX
  8
MESH
 62
      2
 10
         4451.687500000
 20
         2402.724609375
 30
         1047.897338867
 70
    32
  0
VERTEX
  8
MESH
 62
      2
 10
         4484.910156250
 20
         2365.322753906
 30
         1040.909423828
 70
    32
  0
VERTEX
  8
MESH
 62
      2
 10
         4518.214843750
 20
         2327.629882812
 30
         1035.523681641
 70
    32
  0
VERTEX
  8
MESH
 62
      2
 10
         4551.964843750
 20
         2289.390625000
 30
         1030.443603516
 70
    32
  0
VERTEX
  8
MESH
 62
      2
 10
         4585.425781250
 20
         2251.427734375
 30
         1025.828247070
 70
    32
  0
VERTEX
  8
MESH
 62
      2
 10
         4619.976562500
 20
         2212.229980469
 30
         1021.052734375
 70
    32
  0
VERTEX
  8
MESH
 62
      2
 10
         4652.664062500
 20
         2175.051757812
 30
         1017.291259766
 70
    32
  0
VERTEX
  8
MESH
 62
      2
 10
         4684.242187500
 20
         2139.066406250
 30
         1014.197021484
 70
    32
  0
VERTEX
  8
MESH
 62
      2
 10
         4718.597656250
 20
         2099.812011719
 30
         1011.736206055
 70
    32
  0
SEQEND
  0
POLYLINE
  8
MESH
 62
      2
 66
     1
 10
0.0
 20
0.0
 30
0.0
 70
     8
  0
VERTEX
  8
MESH
 62
      2
 10
         3140.800781250
 20
         3997.639160156
 30
          974.040161133
 70
    32
  0
VERTEX
  8
MESH
 62
      2
 10
         3174.296875000
 20
         3958.345214844
 30
          979.966125488
 70
    32
  0
VERTEX
  8
MESH
 62
      2
 10
         3207.007812500
 20
         3920.910156250
 30
          978.084289551
 70
    32
  0
VERTEX
  8
MESH
 62
      2
 10
         3239.742187500
 20
         3884.817382812
 30
          965.021789551
 70
    32
  0
VERTEX
  8
MESH
 62
      2
 10
         3273.812500000
 20
         3845.587402344
 30
          965.000061035
 70
    32
  0
VERTEX
  8
MESH
 62
      2
 10
         3307.195312500
 20
         3807.147460938
 30
          965.000000000
 70
    32
  0
VERTEX
  8
MESH
 62
      2
 10
         3336.750000000
 20
         3773.121582031
 30
          965.000000000
 70
    32
  0
VERTEX
  8
MESH
 62
      2
 10
         3369.609375000
 20
         3735.286621094
 30
          965.000000000
 70
    32
  0
VERTEX
  8
MESH
 62
      2
 10
         3410.144531250
 20
         3688.611328125
 30
          965.000000000
 70
    32
  0
VERTEX
  8
MESH
 62
      2
 10
         3438.574218750
 20
         3655.817382812
 30
          965.483825684
 70
    32
  0
VERTEX
  8
MESH
 62
      2
 10
         3471.546875000
 20
         3617.518066406
 30
          968.188781738
 70
    32
  0
VERTEX
  8
MESH
 62
      2
 10
         3504.980468750
 20
         3578.658203125
 30
          971.213378906
 70
    32
  0
VERTEX
  8
MESH
 62
      2
 10
         3539.527343750
 20
         3538.418457031
 30
          974.948608398
 70
    32
  0
VERTEX
  8
MESH
 62
      2
 10
         3573.339843750
 20
         3498.967285156
 30
          979.215087891
 70
    32
  0
VERTEX
  8
MESH
 62
      2
 10
         3605.820312500
 20
         3461.021484375
 30
          983.692993164
 70
    32
  0
VERTEX
  8
MESH
 62
      2
 10
         3637.398437500
 20
         3424.050292969
 30
          988.659729004
 70
    32
  0
VERTEX
  8
MESH
 62
      2
 10
         3670.230468750
 20
         3385.670898438
 30
          993.385986328
 70
    32
  0
VERTEX
  8
MESH
 62
      2
 10
         3702.925781250
 20
         3347.486328125
 30
          997.803588867
 70
    32
  0
VERTEX
  8
MESH
 62
      2
 10
         3735.550781250
 20
         3309.454101562
 30
         1001.601013184
 70
    32
  0
VERTEX
  8
MESH
 62
      2
 10
         3768.656250000
 20
         3270.690429688
 30
         1006.895996094
 70
    32
  0
VERTEX
  8
MESH
 62
      2
 10
         3801.433593750
 20
         3232.218261719
 30
         1012.925964355
 70
    32
  0
VERTEX
  8
MESH
 62
      2
 10
         3833.242187500
 20
         3194.134765625
 30
         1024.862426758
 70
    32
  0
VERTEX
  8
MESH
 62
      2
 10
         3865.503906250
 20
         3156.123046875
 30
         1031.875000000
 70
    32
  0
VERTEX
  8
MESH
 62
      2
 10
         3895.988281250
 20
         3118.858398438
 30
         1049.614013672
 70
    32
  0
VERTEX
  8
MESH
 62
      2
 10
         3924.683593750
 20
         3083.311035156
 30
         1070.113037109
 70
    32
  0
VERTEX
  8
MESH
 62
      2
 10
         3953.671875000
 20
         3047.169921875
 30
         1092.718872070
 70
    32
  0
VERTEX
  8
MESH
 62
      2
 10
         3982.710937500
 20
         3011.141601562
 30
         1113.931884766
 70
    32
  0
VERTEX
  8
MESH
 62
      2
 10
         4011.218750000
 20
         2975.779296875
 30
         1134.730590820
 70
    32
  0
VERTEX
  8
MESH
 62
      2
 10
         4039.472656250
 20
         2940.366699219
 30
         1158.295776367
 70
    32
  0
VERTEX
  8
MESH
 62
      2
 10
         4065.972656250
 20
         2909.233886719
 30
         1163.367309570
 70
    32
  0
VERTEX
  8
MESH
 62
      2
 10
         4077.566406250
 20
         2901.718261719
 30
         1115.627807617
 70
    32
  0
VERTEX
  8
MESH
 62
      2
 10
         4107.027343750
 20
         2865.834960938
 30
         1131.660278320
 70
    32
  0
VERTEX
  8
MESH
 62
      2
 10
         4123.808593750
 20
         2841.513671875
 30
         1172.590454102
 70
    32
  0
VERTEX
  8
MESH
 62
      2
 10
         4131.714843750
 20
         2826.700195312
 30
         1219.307861328
 70
    32
  0
VERTEX
  8
MESH
 62
      2
 10
         4149.703125000
 20
         2801.818847656
 30
         1253.417480469
 70
    32
  0
VERTEX
  8
MESH
 62
      2
 10
         4181.683593750
 20
         2764.148925781
 30
         1260.348876953
 70
    32
  0
VERTEX
  8
MESH
 62
      2
 10
         4213.738281250
 20
         2729.300292969
 30
         1243.527587891
 70
    32
  0
VERTEX
  8
MESH
 62
      2
 10
         4245.832031250
 20
         2694.779785156
 30
         1223.582153320
 70
    32
  0
VERTEX
  8
MESH
 62
      2
 10
         4276.039062500
 20
         2663.140625000
 30
         1197.861938477
 70
    32
  0
VERTEX
  8
MESH
 62
      2
 10
         4302.601562500
 20
         2636.666503906
 30
         1164.216918945
 70
    32
  0
VERTEX
  8
MESH
 62
      2
 10
         4331.464843750
 20
         2607.031738281
 30
         1134.765136719
 70
    32
  0
VERTEX
  8
MESH
 62
      2
 10
         4362.824218750
 20
         2573.668945312
 30
         1112.324340820
 70
    32
  0
VERTEX
  8
MESH
 62
      2
 10
         4394.359375000
 20
         2539.718750000
 30
         1092.990600586
 70
    32
  0
VERTEX
  8
MESH
 62
      2
 10
         4426.570312500
 20
         2505.264160156
 30
         1071.432739258
 70
    32
  0
VERTEX
  8
MESH
 62
      2
 10
         4458.144531250
 20
         2470.385742188
 30
         1059.344970703
 70
    32
  0
VERTEX
  8
MESH
 62
      2
 10
         4492.390625000
 20
         2432.081542969
 30
         1050.056884766
 70
    32
  0
VERTEX
  8
MESH
 62
      2
 10
         4527.042968750
 20
         2393.181640625
 30
         1041.925048828
 70
    32
  0
VERTEX
  8
MESH
 62
      2
 10
         4560.050781250
 20
         2355.848144531
 30
         1036.441162109
 70
    32
  0
VERTEX
  8
MESH
 62
      2
 10
         4593.691406250
 20
         2317.874511719
 30
         1030.168457031
 70
    32
  0
VERTEX
  8
MESH
 62
      2
 10
         4624.191406250
 20
         2283.457031250
 30
         1024.467041016
 70
    32
  0
VERTEX
  8
MESH
 62
      2
 10
         4658.156250000
 20
         2244.943847656
 30
         1019.587707520
 70
    32
  0
VERTEX
  8
MESH
 62
      2
 10
         4694.488281250
 20
         2203.544921875
 30
         1016.021301270
 70
    32
  0
VERTEX
  8
MESH
 62
      2
 10
         4728.261718750
 20
         2165.065917969
 30
         1012.706420898
 70
    32
  0
VERTEX
  8
MESH
 62
      2
 10
         4759.765625000
 20
         2129.044433594
 30
         1010.600524902
 70
    32
  0
SEQEND
  0
POLYLINE
  8
MESH
 62
      2
 66
     1
 10
0.0
 20
0.0
 30
0.0
 70
     8
  0
VERTEX
  8
MESH
 62
      2
 10
         3156.906250000
 20
         4055.636230469
 30
          973.660766602
 70
    32
  0
VERTEX
  8
MESH
 62
      2
 10
         3191.375000000
 20
         4015.211425781
 30
          979.678710938
 70
    32
  0
VERTEX
  8
MESH
 62
      2
 10
         3222.632812500
 20
         3979.362304688
 30
          978.547058105
 70
    32
  0
VERTEX
  8
MESH
 62
      2
 10
         3255.816406250
 20
         3942.760742188
 30
          965.362670898
 70
    32
  0
VERTEX
  8
MESH
 62
      2
 10
         3289.160156250
 20
         3904.411621094
 30
          965.001586914
 70
    32
  0
VERTEX
  8
MESH
 62
      2
 10
         3318.851562500
 20
         3870.223632812
 30
          965.000000000
 70
    32
  0
VERTEX
  8
MESH
 62
      2
 10
         3349.304687500
 20
         3835.159667969
 30
          965.000000000
 70
    32
  0
VERTEX
  8
MESH
 62
      2
 10
         3391.347656250
 20
         3786.750976562
 30
          965.000000000
 70
    32
  0
VERTEX
  8
MESH
 62
      2
 10
         3421.460937500
 20
         3752.081054688
 30
          965.000000000
 70
    32
  0
VERTEX
  8
MESH
 62
      2
 10
         3453.492187500
 20
         3715.198730469
 30
          965.000000000
 70
    32
  0
VERTEX
  8
MESH
 62
      2
 10
         3487.613281250
 20
         3675.722656250
 30
          966.512817383
 70
    32
  0
VERTEX
  8
MESH
 62
      2
 10
         3521.214843750
 20
         3636.664062500
 30
          969.565917969
 70
    32
  0
VERTEX
  8
MESH
 62
      2
 10
         3554.480468750
 20
         3597.954589844
 30
          972.863464355
 70
    32
  0
VERTEX
  8
MESH
 62
      2
 10
         3586.078125000
 20
         3561.164550781
 30
          976.186157227
 70
    32
  0
VERTEX
  8
MESH
 62
      2
 10
         3619.437500000
 20
         3522.254394531
 30
          980.263366699
 70
    32
  0
VERTEX
  8
MESH
 62
      2
 10
         3652.027343750
 20
         3483.909179688
 30
          986.996887207
 70
    32
  0
VERTEX
  8
MESH
 62
      2
 10
         3683.089843750
 20
         3447.087402344
 30
          995.643310547
 70
    32
  0
VERTEX
  8
MESH
 62
      2
 10
         3716.417968750
 20
         3408.207031250
 30
          999.765563965
 70
    32
  0
VERTEX
  8
MESH
 62
      2
 10
         3749.390625000
 20
         3370.022949219
 30
         1001.564819336
 70
    32
  0
VERTEX
  8
MESH
 62
      2
 10
         3782.058593750
 20
         3331.976562500
 30
         1005.092895508
 70
    32
  0
VERTEX
  8
MESH
 62
      2
 10
         3813.921875000
 20
         3294.187011719
 30
         1014.101379395
 70
    32
  0
VERTEX
  8
MESH
 62
      2
 10
         3846.363281250
 20
         3256.168945312
 30
         1019.531433105
 70
    32
  0
VERTEX
  8
MESH
 62
      2
 10
         3879.019531250
 20
         3217.972167969
 30
         1024.416748047
 70
    32
  0
VERTEX
  8
MESH
 62
      2
 10
         3910.835937500
 20
         3180.252929688
 30
         1033.311035156
 70
    32
  0
VERTEX
  8
MESH
 62
      2
 10
         3940.261718750
 20
         3144.100585938
 30
         1051.879882812
 70
    32
  0
VERTEX
  8
MESH
 62
      2
 10
         3968.468750000
 20
         3108.932128906
 30
         1073.891601562
 70
    32
  0
VERTEX
  8
MESH
 62
      2
 10
         3995.710937500
 20
         3074.549316406
 30
         1098.581542969
 70
    32
  0
VERTEX
  8
MESH
 62
      2
 10
         4024.089843750
 20
         3039.221679688
 30
         1120.256835938
 70
    32
  0
VERTEX
  8
MESH
 62
      2
 10
         4053.375000000
 20
         3003.138671875
 30
         1139.597167969
 70
    32
  0
VERTEX
  8
MESH
 62
      2
 10
         4081.460937500
 20
         2968.091796875
 30
         1161.792236328
 70
    32
  0
VERTEX
  8
MESH
 62
      2
 10
         4109.136718750
 20
         2936.666015625
 30
         1158.170654297
 70
    32
  0
VERTEX
  8
MESH
 62
      2
 10
         4129.464843750
 20
         2917.506347656
 30
         1123.386962891
 70
    32
  0
VERTEX
  8
MESH
 62
      2
 10
         4155.679687500
 20
         2884.326171875
 30
         1147.913085938
 70
    32
  0
VERTEX
  8
MESH
 62
      2
 10
         4161.441406250
 20
         2871.678222656
 30
         1197.143188477
 70
    32
  0
VERTEX
  8
MESH
 62
      2
 10
         4175.570312500
 20
         2849.934570312
 30
         1241.937255859
 70
    32
  0
VERTEX
  8
MESH
 62
      2
 10
         4205.089843750
 20
         2813.647460938
 30
         1260.766845703
 70
    32
  0
VERTEX
  8
MESH
 62
      2
 10
         4228.601562500
 20
         2784.752441406
 30
         1275.663574219
 70
    32
  0
VERTEX
  8
MESH
 62
      2
 10
         4259.773437500
 20
         2751.485839844
 30
         1254.164794922
 70
    32
  0
VERTEX
  8
MESH
 62
      2
 10
         4290.726562500
 20
         2718.554199219
 30
         1232.034912109
 70
    32
  0
VERTEX
  8
MESH
 62
      2
 10
         4318.925781250
 20
         2689.743164062
 30
         1202.091674805
 70
    32
  0
VERTEX
  8
MESH
 62
      2
 10
         4345.796875000
 20
         2662.854003906
 30
         1168.906005859
 70
    32
  0
VERTEX
  8
MESH
 62
      2
 10
         4374.742187500
 20
         2633.024414062
 30
         1140.266113281
 70
    32
  0
VERTEX
  8
MESH
 62
      2
 10
         4404.871093750
 20
         2601.437011719
 30
         1114.899169922
 70
    32
  0
VERTEX
  8
MESH
 62
      2
 10
         4436.042968750
 20
         2568.091796875
 30
         1094.044067383
 70
    32
  0
VERTEX
  8
MESH
 62
      2
 10
         4468.695312500
 20
         2532.693847656
 30
         1076.039184570
 70
    32
  0
VERTEX
  8
MESH
 62
      2
 10
         4501.246093750
 20
         2496.635253906
 30
         1064.427856445
 70
    32
  0
VERTEX
  8
MESH
 62
      2
 10
         4533.898437500
 20
         2460.377441406
 30
         1053.458862305
 70
    32
  0
VERTEX
  8
MESH
 62
      2
 10
         4567.285156250
 20
         2423.118652344
 30
         1043.769287109
 70
    32
  0
VERTEX
  8
MESH
 62
      2
 10
         4602.203125000
 20
         2383.809570312
 30
         1036.451416016
 70
    32
  0
VERTEX
  8
MESH
 62
      2
 10
         4634.003906250
 20
         2348.053222656
 30
         1029.379760742
 70
    32
  0
VERTEX
  8
MESH
 62
      2
 10
         4668.671875000
 20
         2308.917480469
 30
         1022.982421875
 70
    32
  0
VERTEX
  8
MESH
 62
      2
 10
         4698.464843750
 20
         2275.169433594
 30
         1018.467041016
 70
    32
  0
VERTEX
  8
MESH
 62
      2
 10
         4733.859375000
 20
         2234.836914062
 30
         1014.992431641
 70
    32
  0
VERTEX
  8
MESH
 62
      2
 10
         4770.531250000
 20
         2193.051269531
 30
         1011.392578125
 70
    32
  0
VERTEX
  8
MESH
 62
      2
 10
         4800.937500000
 20
         2158.276855469
 30
         1009.464782715
 70
    32
  0
SEQEND
  0
POLYLINE
  8
MESH
 62
      2
 66
     1
 10
0.0
 20
0.0
 30
0.0
 70
     8
  0
VERTEX
  8
MESH
 62
      2
 10
         3173.011718750
 20
         4113.633300781
 30
          973.281372070
 70
    32
  0
VERTEX
  8
MESH
 62
      2
 10
         3206.558593750
 20
         4074.293457031
 30
          979.143432617
 70
    32
  0
VERTEX
  8
MESH
 62
      2
 10
         3238.746093750
 20
         4037.268554688
 30
          978.820556641
 70
    32
  0
VERTEX
  8
MESH
 62
      2
 10
         3271.304687500
 20
         4001.049316406
 30
          968.442871094
 70
    32
  0
VERTEX
  8
MESH
 62
      2
 10
         3304.394531250
 20
         3963.368652344
 30
          965.000000000
 70
    32
  0
VERTEX
  8
MESH
 62
      2
 10
         3335.851562500
 20
         3927.145507812
 30
          965.000000000
 70
    32
  0
VERTEX
  8
MESH
 62
      2
 10
         3375.847656250
 20
         3881.095703125
 30
          965.000000000
 70
    32
  0
VERTEX
  8
MESH
 62
      2
 10
         3401.621093750
 20
         3851.418945312
 30
          965.000000000
 70
    32
  0
VERTEX
  8
MESH
 62
      2
 10
         3439.898437500
 20
         3807.344726562
 30
          965.000000000
 70
    32
  0
VERTEX
  8
MESH
 62
      2
 10
         3476.296875000
 20
         3765.431640625
 30
          965.000000000
 70
    32
  0
VERTEX
  8
MESH
 62
      2
 10
         3503.968750000
 20
         3733.571777344
 30
          965.035705566
 70
    32
  0
VERTEX
  8
MESH
 62
      2
 10
         3536.078125000
 20
         3696.333007812
 30
          967.193664551
 70
    32
  0
VERTEX
  8
MESH
 62
      2
 10
         3570.218750000
 20
         3656.428710938
 30
          972.087707520
 70
    32
  0
VERTEX
  8
MESH
 62
      2
 10
         3602.601562500
 20
         3618.775878906
 30
          975.061096191
 70
    32
  0
VERTEX
  8
MESH
 62
      2
 10
         3635.617187500
 20
         3580.510742188
 30
          977.116943359
 70
    32
  0
VERTEX
  8
MESH
 62
      2
 10
         3668.453125000
 20
         3542.083984375
 30
          982.160522461
 70
    32
  0
VERTEX
  8
MESH
 62
      2
 10
         3702.511718750
 20
         3502.172363281
 30
          987.853637695
 70
    32
  0
VERTEX
  8
MESH
 62
      2
 10
         3734.917968750
 20
         3464.201171875
 30
          993.216979980
 70
    32
  0
VERTEX
  8
MESH
 62
      2
 10
         3767.453125000
 20
         3426.267578125
 30
          997.084716797
 70
    32
  0
VERTEX
  8
MESH
 62
      2
 10
         3799.710937500
 20
         3388.421875000
 30
         1002.855163574
 70
    32
  0
VERTEX
  8
MESH
 62
      2
 10
         3832.203125000
 20
         3350.077148438
 30
         1010.512634277
 70
    32
  0
VERTEX
  8
MESH
 62
      2
 10
         3864.687500000
 20
         3311.699218750
 30
         1018.464782715
 70
    32
  0
VERTEX
  8
MESH
 62
      2
 10
         3897.964843750
 20
         3272.784667969
 30
         1023.342773438
 70
    32
  0
VERTEX
  8
MESH
 62
      2
 10
         3930.519531250
 20
         3234.551757812
 30
         1029.442993164
 70
    32
  0
VERTEX
  8
MESH
 62
      2
 10
         3961.824218750
 20
         3197.089355469
 30
         1041.099609375
 70
    32
  0
VERTEX
  8
MESH
 62
      2
 10
         3992.066406250
 20
         3160.025390625
 30
         1059.430908203
 70
    32
  0
VERTEX
  8
MESH
 62
      2
 10
         4020.355468750
 20
         3124.743652344
 30
         1081.620849609
 70
    32
  0
VERTEX
  8
MESH
 62
      2
 10
         4048.214843750
 20
         3089.702636719
 30
         1105.866577148
 70
    32
  0
VERTEX
  8
MESH
 62
      2
 10
         4078.968750000
 20
         3052.418457031
 30
         1121.161865234
 70
    32
  0
VERTEX
  8
MESH
 62
      2
 10
         4107.246093750
 20
         3017.082031250
 30
         1143.907836914
 70
    32
  0
VERTEX
  8
MESH
 62
      2
 10
         4136.390625000
 20
         2981.356445312
 30
         1161.620605469
 70
    32
  0
VERTEX
  8
MESH
 62
      2
 10
         4169.347656250
 20
         2946.056640625
 30
         1139.948608398
 70
    32
  0
VERTEX
  8
MESH
 62
      2
 10
         4195.566406250
 20
         2916.749511719
 30
         1132.775390625
 70
    32
  0
VERTEX
  8
MESH
 62
      2
 10
         4199.707031250
 20
         2905.899414062
 30
         1182.513427734
 70
    32
  0
VERTEX
  8
MESH
 62
      2
 10
         4214.710937500
 20
         2882.895507812
 30
         1229.439453125
 70
    32
  0
VERTEX
  8
MESH
 62
      2
 10
         4240.179687500
 20
         2849.385253906
 30
         1263.669555664
 70
    32
  0
VERTEX
  8
MESH
 62
      2
 10
         4272.160156250
 20
         2811.150390625
 30
         1275.199340820
 70
    32
  0
VERTEX
  8
MESH
 62
      2
 10
         4303.707031250
 20
         2776.834960938
 30
         1258.759765625
 70
    32
  0
VERTEX
  8
MESH
 62
      2
 10
         4334.000000000
 20
         2745.160156250
 30
         1232.534790039
 70
    32
  0
VERTEX
  8
MESH
 62
      2
 10
         4361.476562500
 20
         2717.426757812
 30
         1200.605346680
 70
    32
  0
VERTEX
  8
MESH
 62
      2
 10
         4387.210937500
 20
         2692.016601562
 30
         1166.050659180
 70
    32
  0
VERTEX
  8
MESH
 62
      2
 10
         4415.769531250
 20
         2662.715332031
 30
         1136.697753906
 70
    32
  0
VERTEX
  8
MESH
 62
      2
 10
         4446.039062500
 20
         2630.923828125
 30
         1111.697143555
 70
    32
  0
VERTEX
  8
MESH
 62
      2
 10
         4477.949218750
 20
         2596.625976562
 30
         1091.652343750
 70
    32
  0
VERTEX
  8
MESH
 62
      2
 10
         4509.441406250
 20
         2562.896972656
 30
         1070.944091797
 70
    32
  0
VERTEX
  8
MESH
 62
      2
 10
         4541.773437500
 20
         2526.669921875
 30
         1062.749633789
 70
    32
  0
VERTEX
  8
MESH
 62
      2
 10
         4574.839843750
 20
         2489.878417969
 30
         1052.242797852
 70
    32
  0
VERTEX
  8
MESH
 62
      2
 10
         4609.484375000
 20
         2451.075195312
 30
         1043.365600586
 70
    32
  0
VERTEX
  8
MESH
 62
      2
 10
         4642.808593750
 20
         2413.704101562
 30
         1035.201416016
 70
    32
  0
VERTEX
  8
MESH
 62
      2
 10
         4675.003906250
 20
         2377.613769531
 30
         1027.187744141
 70
    32
  0
VERTEX
  8
MESH
 62
      2
 10
         4708.628906250
 20
         2339.691406250
 30
         1020.673767090
 70
    32
  0
VERTEX
  8
MESH
 62
      2
 10
         4743.878906250
 20
         2299.567871094
 30
         1016.850524902
 70
    32
  0
VERTEX
  8
MESH
 62
      2
 10
         4772.097656250
 20
         2267.416015625
 30
         1014.074340820
 70
    32
  0
VERTEX
  8
MESH
 62
      2
 10
         4811.250000000
 20
         2222.804687500
 30
         1010.231262207
 70
    32
  0
VERTEX
  8
MESH
 62
      2
 10
         4842.105468750
 20
         2187.509277344
 30
         1008.329101562
 70
    32
  0
SEQEND
  0
POLYLINE
  8
MESH
 62
      2
 66
     1
 10
0.0
 20
0.0
 30
0.0
 70
     8
  0
VERTEX
  8
MESH
 62
      2
 10
         3189.121093750
 20
         4171.630371094
 30
          972.902038574
 70
    32
  0
VERTEX
  8
MESH
 62
      2
 10
         3221.304687500
 20
         4133.888183594
 30
          978.529541016
 70
    32
  0
VERTEX
  8
MESH
 62
      2
 10
         3253.457031250
 20
         4096.722656250
 30
          979.706481934
 70
    32
  0
VERTEX
  8
MESH
 62
      2
 10
         3287.031250000
 20
         4058.843261719
 30
          973.293762207
 70
    32
  0
VERTEX
  8
MESH
 62
      2
 10
         3319.351562500
 20
         4022.213867188
 30
          968.542053223
 70
    32
  0
VERTEX
  8
MESH
 62
      2
 10
         3353.277343750
 20
         3983.547851562
 30
          965.282775879
 70
    32
  0
VERTEX
  8
MESH
 62
      2
 10
         3386.843750000
 20
         3944.935546875
 30
          965.000000000
 70
    32
  0
VERTEX
  8
MESH
 62
      2
 10
         3418.566406250
 20
         3908.403808594
 30
          965.000000000
 70
    32
  0
VERTEX
  8
MESH
 62
      2
 10
         3451.902343750
 20
         3870.023437500
 30
          965.000000000
 70
    32
  0
VERTEX
  8
MESH
 62
      2
 10
         3485.125000000
 20
         3831.765136719
 30
          965.000000000
 70
    32
  0
VERTEX
  8
MESH
 62
      2
 10
         3519.042968750
 20
         3792.710937500
 30
          965.053466797
 70
    32
  0
VERTEX
  8
MESH
 62
      2
 10
         3551.953125000
 20
         3754.541015625
 30
          967.283996582
 70
    32
  0
VERTEX
  8
MESH
 62
      2
 10
         3584.613281250
 20
         3716.465820312
 30
          971.109436035
 70
    32
  0
VERTEX
  8
MESH
 62
      2
 10
         3617.433593750
 20
         3678.200683594
 30
          975.000000000
 70
    32
  0
VERTEX
  8
MESH
 62
      2
 10
         3650.972656250
 20
         3639.565429688
 30
          975.167480469
 70
    32
  0
VERTEX
  8
MESH
 62
      2
 10
         3683.402343750
 20
         3601.607910156
 30
          980.179443359
 70
    32
  0
VERTEX
  8
MESH
 62
      2
 10
         3716.156250000
 20
         3563.459472656
 30
          983.744018555
 70
    32
  0
VERTEX
  8
MESH
 62
      2
 10
         3748.789062500
 20
         3525.370117188
 30
          987.965454102
 70
    32
  0
VERTEX
  8
MESH
 62
      2
 10
         3781.468750000
 20
         3487.159667969
 30
          992.750793457
 70
    32
  0
VERTEX
  8
MESH
 62
      2
 10
         3814.519531250
 20
         3448.412597656
 30
          998.386718750
 70
    32
  0
VERTEX
  8
MESH
 62
      2
 10
         3846.800781250
 20
         3410.349609375
 30
         1005.708312988
 70
    32
  0
VERTEX
  8
MESH
 62
      2
 10
         3879.371093750
 20
         3372.061523438
 30
         1012.167297363
 70
    32
  0
VERTEX
  8
MESH
 62
      2
 10
         3911.644531250
 20
         3333.870117188
 30
         1020.575744629
 70
    32
  0
VERTEX
  8
MESH
 62
      2
 10
         3943.859375000
 20
         3295.714355469
 30
         1029.274780273
 70
    32
  0
VERTEX
  8
MESH
 62
      2
 10
         3976.167968750
 20
         3257.481445312
 30
         1037.716186523
 70
    32
  0
VERTEX
  8
MESH
 62
      2
 10
         4008.042968750
 20
         3219.454101562
 30
         1048.567993164
 70
    32
  0
VERTEX
  8
MESH
 62
      2
 10
         4039.531250000
 20
         3181.597167969
 30
         1061.649536133
 70
    32
  0
VERTEX
  8
MESH
 62
      2
 10
         4070.664062500
 20
         3144.037109375
 30
         1075.673217773
 70
    32
  0
VERTEX
  8
MESH
 62
      2
 10
         4100.902343750
 20
         3107.067382812
 30
         1093.306518555
 70
    32
  0
VERTEX
  8
MESH
 62
      2
 10
         4130.667968750
 20
         3070.477539062
 30
         1112.261840820
 70
    32
  0
VERTEX
  8
MESH
 62
      2
 10
         4158.714843750
 20
         3035.324218750
 30
         1135.653076172
 70
    32
  0
VERTEX
  8
MESH
 62
      2
 10
         4189.414062500
 20
         2997.691406250
 30
         1154.347045898
 70
    32
  0
VERTEX
  8
MESH
 62
      2
 10
         4225.757812500
 20
         2955.829589844
 30
         1154.478515625
 70
    32
  0
VERTEX
  8
MESH
 62
      2
 10
         4244.277343750
 20
         2931.218261719
 30
         1181.368408203
 70
    32
  0
VERTEX
  8
MESH
 62
      2
 10
         4258.789062500
 20
         2909.065917969
 30
         1225.932373047
 70
    32
  0
VERTEX
  8
MESH
 62
      2
 10
         4285.214843750
 20
         2874.377441406
 30
         1260.819946289
 70
    32
  0
VERTEX
  8
MESH
 62
      2
 10
         4316.324218750
 20
         2836.931640625
 30
         1274.098388672
 70
    32
  0
VERTEX
  8
MESH
 62
      2
 10
         4347.242187500
 20
         2803.827636719
 30
         1253.674316406
 70
    32
  0
VERTEX
  8
MESH
 62
      2
 10
         4376.027343750
 20
         2774.273925781
 30
         1224.260986328
 70
    32
  0
VERTEX
  8
MESH
 62
      2
 10
         4404.125000000
 20
         2745.728515625
 30
         1193.117797852
 70
    32
  0
VERTEX
  8
MESH
 62
      2
 10
         4431.828125000
 20
         2717.663085938
 30
         1161.777587891
 70
    32
  0
VERTEX
  8
MESH
 62
      2
 10
         4460.023437500
 20
         2688.933105469
 30
         1131.208007812
 70
    32
  0
VERTEX
  8
MESH
 62
      2
 10
         4489.097656250
 20
         2658.858886719
 30
         1103.327758789
 70
    32
  0
VERTEX
  8
MESH
 62
      2
 10
         4522.359375000
 20
         2620.942382812
 30
         1100.200317383
 70
    32
  0
VERTEX
  8
MESH
 62
      2
 10
         4554.109375000
 20
         2586.257324219
 30
         1084.917602539
 70
    32
  0
VERTEX
  8
MESH
 62
      2
 10
         4586.476562500
 20
         2551.178222656
 30
         1067.014770508
 70
    32
  0
VERTEX
  8
MESH
 62
      2
 10
         4618.019531250
 20
         2517.051269531
 30
         1049.011352539
 70
    32
  0
VERTEX
  8
MESH
 62
      2
 10
         4650.980468750
 20
         2480.451171875
 30
         1037.979003906
 70
    32
  0
VERTEX
  8
MESH
 62
      2
 10
         4684.804687500
 20
         2442.271972656
 30
         1031.700317383
 70
    32
  0
VERTEX
  8
MESH
 62
      2
 10
         4717.750000000
 20
         2405.166015625
 30
         1024.881835938
 70
    32
  0
VERTEX
  8
MESH
 62
      2
 10
         4748.890625000
 20
         2370.012695312
 30
         1019.188354492
 70
    32
  0
VERTEX
  8
MESH
 62
      2
 10
         4786.398437500
 20
         2327.270996094
 30
         1015.506164551
 70
    32
  0
VERTEX
  8
MESH
 62
      2
 10
         4818.515625000
 20
         2290.674804688
 30
         1012.353515625
 70
    32
  0
VERTEX
  8
MESH
 62
      2
 10
         4849.707031250
 20
         2255.131347656
 30
         1009.314819336
 70
    32
  0
VERTEX
  8
MESH
 62
      2
 10
         4883.273437500
 20
         2216.741699219
 30
         1007.193359375
 70
    32
  0
SEQEND
  0
POLYLINE
  8
MESH
 62
      2
 66
     1
 10
0.0
 20
0.0
 30
0.0
 70
     8
  0
VERTEX
  8
MESH
 62
      2
 10
         3205.226562500
 20
         4229.627441406
 30
          972.522644043
 70
    32
  0
VERTEX
  8
MESH
 62
      2
 10
         3239.574218750
 20
         4189.350585938
 30
          978.504211426
 70
    32
  0
VERTEX
  8
MESH
 62
      2
 10
         3270.328125000
 20
         4153.798828125
 30
          979.622497559
 70
    32
  0
VERTEX
  8
MESH
 62
      2
 10
         3304.398437500
 20
         4115.086914062
 30
          975.397399902
 70
    32
  0
VERTEX
  8
MESH
 62
      2
 10
         3337.000000000
 20
         4078.157714844
 30
          970.412475586
 70
    32
  0
VERTEX
  8
MESH
 62
      2
 10
         3369.050781250
 20
         4041.577148438
 30
          967.776428223
 70
    32
  0
VERTEX
  8
MESH
 62
      2
 10
         3400.507812500
 20
         4005.697753906
 30
          965.000000000
 70
    32
  0
VERTEX
  8
MESH
 62
      2
 10
         3435.636718750
 20
         3965.247558594
 30
          965.000000000
 70
    32
  0
VERTEX
  8
MESH
 62
      2
 10
         3464.218750000
 20
         3932.339843750
 30
          965.000000000
 70
    32
  0
VERTEX
  8
MESH
 62
      2
 10
         3505.445312500
 20
         3884.866699219
 30
          965.000000000
 70
    32
  0
VERTEX
  8
MESH
 62
      2
 10
         3533.167968750
 20
         3852.908203125
 30
          965.352539062
 70
    32
  0
VERTEX
  8
MESH
 62
      2
 10
         3565.582031250
 20
         3814.633789062
 30
          973.083496094
 70
    32
  0
VERTEX
  8
MESH
 62
      2
 10
         3599.218750000
 20
         3775.483398438
 30
          976.525756836
 70
    32
  0
VERTEX
  8
MESH
 62
      2
 10
         3632.039062500
 20
         3737.841308594
 30
          975.334594727
 70
    32
  0
VERTEX
  8
MESH
 62
      2
 10
         3665.187500000
 20
         3699.238281250
 30
          978.904541016
 70
    32
  0
VERTEX
  8
MESH
 62
      2
 10
         3697.535156250
 20
         3662.048339844
 30
          978.444396973
 70
    32
  0
VERTEX
  8
MESH
 62
      2
 10
         3729.906250000
 20
         3624.485351562
 30
          980.809265137
 70
    32
  0
VERTEX
  8
MESH
 62
      2
 10
         3761.093750000
 20
         3587.944335938
 30
          985.941894531
 70
    32
  0
VERTEX
  8
MESH
 62
      2
 10
         3794.347656250
 20
         3549.327636719
 30
          988.674865723
 70
    32
  0
VERTEX
  8
MESH
 62
      2
 10
         3828.183593750
 20
         3509.611816406
 30
          994.822875977
 70
    32
  0
VERTEX
  8
MESH
 62
      2
 10
         3861.152343750
 20
         3471.076660156
 30
          999.551818848
 70
    32
  0
VERTEX
  8
MESH
 62
      2
 10
         3891.769531250
 20
         3434.831054688
 30
         1007.665588379
 70
    32
  0
VERTEX
  8
MESH
 62
      2
 10
         3923.597656250
 20
         3397.273925781
 30
         1015.103942871
 70
    32
  0
VERTEX
  8
MESH
 62
      2
 10
         3956.265625000
 20
         3358.656738281
 30
         1023.290649414
 70
    32
  0
VERTEX
  8
MESH
 62
      2
 10
         3988.492187500
 20
         3320.816894531
 30
         1029.270751953
 70
    32
  0
VERTEX
  8
MESH
 62
      2
 10
         4019.847656250
 20
         3283.405761719
 30
         1040.001342773
 70
    32
  0
VERTEX
  8
MESH
 62
      2
 10
         4048.925781250
 20
         3248.092773438
 30
         1055.009155273
 70
    32
  0
VERTEX
  8
MESH
 62
      2
 10
         4081.371093750
 20
         3209.641113281
 30
         1063.916381836
 70
    32
  0
VERTEX
  8
MESH
 62
      2
 10
         4110.089843750
 20
         3174.290527344
 30
         1082.600219727
 70
    32
  0
VERTEX
  8
MESH
 62
      2
 10
         4142.312500000
 20
         3137.055664062
 30
         1083.685180664
 70
    32
  0
VERTEX
  8
MESH
 62
      2
 10
         4171.355468750
 20
         3101.161621094
 30
         1103.785522461
 70
    32
  0
VERTEX
  8
MESH
 62
      2
 10
         4198.695312500
 20
         3066.987792969
 30
         1125.827270508
 70
    32
  0
VERTEX
  8
MESH
 62
      2
 10
         4225.167968750
 20
         3033.293457031
 30
         1152.079345703
 70
    32
  0
VERTEX
  8
MESH
 62
      2
 10
         4249.855468750
 20
         3001.245605469
 30
         1181.733398438
 70
    32
  0
VERTEX
  8
MESH
 62
      2
 10
         4279.203125000
 20
         2966.274902344
 30
         1191.415283203
 70
    32
  0
VERTEX
  8
MESH
 62
      2
 10
         4302.972656250
 20
         2934.400878906
 30
         1228.253784180
 70
    32
  0
VERTEX
  8
MESH
 62
      2
 10
         4326.046875000
 20
         2904.161621094
 30
         1258.299926758
 70
    32
  0
VERTEX
  8
MESH
 62
      2
 10
         4357.644531250
 20
         2866.972167969
 30
         1264.925659180
 70
    32
  0
VERTEX
  8
MESH
 62
      2
 10
         4388.445312500
 20
         2833.981445312
 30
         1244.696777344
 70
    32
  0
VERTEX
  8
MESH
 62
      2
 10
         4416.753906250
 20
         2805.062500000
 30
         1214.608032227
 70
    32
  0
VERTEX
  8
MESH
 62
      2
 10
         4441.683593750
 20
         2780.624511719
 30
         1179.673461914
 70
    32
  0
VERTEX
  8
MESH
 62
      2
 10
         4471.585937500
 20
         2749.442871094
 30
         1153.074707031
 70
    32
  0
VERTEX
  8
MESH
 62
      2
 10
         4501.980468750
 20
         2717.108398438
 30
         1131.326782227
 70
    32
  0
VERTEX
  8
MESH
 62
      2
 10
         4534.847656250
 20
         2679.645019531
 30
         1128.181396484
 70
    32
  0
VERTEX
  8
MESH
 62
      2
 10
         4566.675781250
 20
         2645.051269531
 30
         1111.361572266
 70
    32
  0
VERTEX
  8
MESH
 62
      2
 10
         4598.734375000
 20
         2610.377441406
 30
         1093.015258789
 70
    32
  0
VERTEX
  8
MESH
 62
      2
 10
         4629.347656250
 20
         2577.586425781
 30
         1072.936645508
 70
    32
  0
VERTEX
  8
MESH
 62
      2
 10
         4660.742187500
 20
         2543.845703125
 30
         1053.195922852
 70
    32
  0
VERTEX
  8
MESH
 62
      2
 10
         4694.281250000
 20
         2507.360351562
 30
         1035.754638672
 70
    32
  0
VERTEX
  8
MESH
 62
      2
 10
         4726.621093750
 20
         2471.304687500
 30
         1026.076782227
 70
    32
  0
VERTEX
  8
MESH
 62
      2
 10
         4759.796875000
 20
         2433.781738281
 30
         1020.572814941
 70
    32
  0
VERTEX
  8
MESH
 62
      2
 10
         4789.855468750
 20
         2399.483886719
 30
         1018.002563477
 70
    32
  0
VERTEX
  8
MESH
 62
      2
 10
         4823.054687500
 20
         2361.653808594
 30
         1014.743530273
 70
    32
  0
VERTEX
  8
MESH
 62
      2
 10
         4857.058593750
 20
         2322.908691406
 30
         1011.406066895
 70
    32
  0
VERTEX
  8
MESH
 62
      2
 10
         4892.734375000
 20
         2282.250976562
 30
         1007.972106934
 70
    32
  0
VERTEX
  8
MESH
 62
      2
 10
         4924.445312500
 20
         2245.974121094
 30
         1006.057678223
 70
    32
  0
SEQEND
  0
POLYLINE
  8
MESH
 62
      2
 66
     1
 10
0.0
 20
0.0
 30
0.0
 70
     8
  0
VERTEX
  8
MESH
 62
      2
 10
         3269.656250000
 20
         4461.615722656
 30
          971.005126953
 70
    32
  0
VERTEX
  8
MESH
 62
      2
 10
         3303.121093750
 20
         4422.558593750
 30
          975.270812988
 70
    32
  0
VERTEX
  8
MESH
 62
      2
 10
         3334.671875000
 20
         4386.236816406
 30
          975.257385254
 70
    32
  0
VERTEX
  8
MESH
 62
      2
 10
         3367.863281250
 20
         4348.056152344
 30
          974.936584473
 70
    32
  0
VERTEX
  8
MESH
 62
      2
 10
         3400.570312500
 20
         4310.387695312
 30
          975.000000000
 70
    32
  0
VERTEX
  8
MESH
 62
      2
 10
         3433.761718750
 20
         4272.169921875
 30
          974.987060547
 70
    32
  0
VERTEX
  8
MESH
 62
      2
 10
         3469.238281250
 20
         4231.681152344
 30
          972.074890137
 70
    32
  0
VERTEX
  8
MESH
 62
      2
 10
         3497.480468750
 20
         4199.473144531
 30
          969.552429199
 70
    32
  0
VERTEX
  8
MESH
 62
      2
 10
         3536.320312500
 20
         4155.076660156
 30
          966.881713867
 70
    32
  0
VERTEX
  8
MESH
 62
      2
 10
         3565.765625000
 20
         4121.404785156
 30
          964.935852051
 70
    32
  0
VERTEX
  8
MESH
 62
      2
 10
         3599.164062500
 20
         4083.295898438
 30
          962.115295410
 70
    32
  0
VERTEX
  8
MESH
 62
      2
 10
         3631.535156250
 20
         4045.911132812
 30
          963.038269043
 70
    32
  0
VERTEX
  8
MESH
 62
      2
 10
         3662.035156250
 20
         4009.023925781
 30
          977.533691406
 70
    32
  0
VERTEX
  8
MESH
 62
      2
 10
         3691.414062500
 20
         3972.822265625
 30
          996.953491211
 70
    32
  0
VERTEX
  8
MESH
 62
      2
 10
         3723.976562500
 20
         3934.954589844
 30
          999.999938965
 70
    32
  0
VERTEX
  8
MESH
 62
      2
 10
         3757.054687500
 20
         3896.869628906
 30
          999.992248535
 70
    32
  0
VERTEX
  8
MESH
 62
      2
 10
         3790.832031250
 20
         3857.979003906
 30
          999.973876953
 70
    32
  0
VERTEX
  8
MESH
 62
      2
 10
         3823.546875000
 20
         3820.353027344
 30
          999.629028320
 70
    32
  0
VERTEX
  8
MESH
 62
      2
 10
         3856.910156250
 20
         3782.444824219
 30
          995.454345703
 70
    32
  0
VERTEX
  8
MESH
 62
      2
 10
         3889.507812500
 20
         3743.890625000
 30
         1003.826599121
 70
    32
  0
VERTEX
  8
MESH
 62
      2
 10
         3922.500000000
 20
         3705.365234375
 30
         1008.199645996
 70
    32
  0
VERTEX
  8
MESH
 62
      2
 10
         3955.425781250
 20
         3666.895996094
 30
         1012.770507812
 70
    32
  0
VERTEX
  8
MESH
 62
      2
 10
         3988.058593750
 20
         3628.577148438
 30
         1018.846557617
 70
    32
  0
VERTEX
  8
MESH
 62
      2
 10
         4021.550781250
 20
         3590.136718750
 30
         1017.866149902
 70
    32
  0
VERTEX
  8
MESH
 62
      2
 10
         4054.535156250
 20
         3552.784667969
 30
         1012.769775391
 70
    32
  0
VERTEX
  8
MESH
 62
      2
 10
         4087.542968750
 20
         3514.906250000
 30
         1011.715820312
 70
    32
  0
VERTEX
  8
MESH
 62
      2
 10
         4120.468750000
 20
         3475.980468750
 30
         1019.998413086
 70
    32
  0
VERTEX
  8
MESH
 62
      2
 10
         4151.425781250
 20
         3438.634765625
 30
         1033.914916992
 70
    32
  0
VERTEX
  8
MESH
 62
      2
 10
         4182.046875000
 20
         3401.531738281
 30
         1049.009643555
 70
    32
  0
VERTEX
  8
MESH
 62
      2
 10
         4213.687500000
 20
         3363.612304688
 30
         1061.206787109
 70
    32
  0
VERTEX
  8
MESH
 62
      2
 10
         4245.941406250
 20
         3325.308105469
 30
         1070.735839844
 70
    32
  0
VERTEX
  8
MESH
 62
      2
 10
         4277.628906250
 20
         3287.329589844
 30
         1082.940185547
 70
    32
  0
VERTEX
  8
MESH
 62
      2
 10
         4307.179687500
 20
         3250.942871094
 30
         1102.267333984
 70
    32
  0
VERTEX
  8
MESH
 62
      2
 10
         4335.671875000
 20
         3215.435546875
 30
         1124.365722656
 70
    32
  0
VERTEX
  8
MESH
 62
      2
 10
         4365.320312500
 20
         3178.919433594
 30
         1143.853149414
 70
    32
  0
VERTEX
  8
MESH
 62
      2
 10
         4396.332031250
 20
         3141.334472656
 30
         1159.216308594
 70
    32
  0
VERTEX
  8
MESH
 62
      2
 10
         4425.148437500
 20
         3105.573242188
 30
         1180.322021484
 70
    32
  0
VERTEX
  8
MESH
 62
      2
 10
         4453.070312500
 20
         3070.490722656
 30
         1204.275390625
 70
    32
  0
VERTEX
  8
MESH
 62
      2
 10
         4484.371093750
 20
         3034.578613281
 30
         1203.261962891
 70
    32
  0
VERTEX
  8
MESH
 62
      2
 10
         4507.187500000
 20
         3005.376464844
 30
         1227.235961914
 70
    32
  0
VERTEX
  8
MESH
 62
      2
 10
         4544.019531250
 20
         2963.642578125
 30
         1221.700439453
 70
    32
  0
VERTEX
  8
MESH
 62
      2
 10
         4575.894531250
 20
         2929.491210938
 30
         1200.840820312
 70
    32
  0
VERTEX
  8
MESH
 62
      2
 10
         4608.058593750
 20
         2894.682617188
 30
         1182.588134766
 70
    32
  0
VERTEX
  8
MESH
 62
      2
 10
         4639.363281250
 20
         2861.203613281
 30
         1161.641723633
 70
    32
  0
VERTEX
  8
MESH
 62
      2
 10
         4669.949218750
 20
         2828.897949219
 30
         1137.799072266
 70
    32
  0
VERTEX
  8
MESH
 62
      2
 10
         4700.148437500
 20
         2797.230468750
 30
         1112.380615234
 70
    32
  0
VERTEX
  8
MESH
 62
      2
 10
         4730.082031250
 20
         2765.808593750
 30
         1087.444946289
 70
    32
  0
VERTEX
  8
MESH
 62
      2
 10
         4761.183593750
 20
         2732.666015625
 30
         1065.619384766
 70
    32
  0
VERTEX
  8
MESH
 62
      2
 10
         4793.031250000
 20
         2698.214843750
 30
         1047.482421875
 70
    32
  0
VERTEX
  8
MESH
 62
      2
 10
         4825.640625000
 20
         2662.152343750
 30
         1035.299316406
 70
    32
  0
VERTEX
  8
MESH
 62
      2
 10
         4858.718750000
 20
         2625.289550781
 30
         1025.266723633
 70
    32
  0
VERTEX
  8
MESH
 62
      2
 10
         4891.750000000
 20
         2588.269042969
 30
         1017.007202148
 70
    32
  0
VERTEX
  8
MESH
 62
      2
 10
         4924.421875000
 20
         2550.820800781
 30
         1015.601989746
 70
    32
  0
VERTEX
  8
MESH
 62
      2
 10
         4954.273437500
 20
         2516.745117188
 30
         1013.205810547
 70
    32
  0
VERTEX
  8
MESH
 62
      2
 10
         4988.421875000
 20
         2477.833984375
 30
         1009.853637695
 70
    32
  0
VERTEX
  8
MESH
 62
      2
 10
         5022.605468750
 20
         2438.882324219
 30
         1006.497985840
 70
    32
  0
VERTEX
  8
MESH
 62
      2
 10
         5057.921875000
 20
         2398.640625000
 30
         1003.031188965
 70
    32
  0
VERTEX
  8
MESH
 62
      2
 10
         5089.121093750
 20
         2362.903320312
 30
         1001.514831543
 70
    32
  0
SEQEND
  0
POLYLINE
  8
MESH
 62
      2
 66
     1
 10
0.0
 20
0.0
 30
0.0
 70
     8
  0
VERTEX
  8
MESH
 62
      2
 10
         3285.765625000
 20
         4519.612792969
 30
          970.625732422
 70
    32
  0
VERTEX
  8
MESH
 62
      2
 10
         3318.640625000
 20
         4481.389160156
 30
          973.664733887
 70
    32
  0
VERTEX
  8
MESH
 62
      2
 10
         3351.117187500
 20
         4444.010742188
 30
          973.542236328
 70
    32
  0
VERTEX
  8
MESH
 62
      2
 10
         3384.796875000
 20
         4405.227050781
 30
          973.530761719
 70
    32
  0
VERTEX
  8
MESH
 62
      2
 10
         3416.652343750
 20
         4368.494140625
 30
          974.007751465
 70
    32
  0
VERTEX
  8
MESH
 62
      2
 10
         3448.851562500
 20
         4331.297363281
 30
          975.000000000
 70
    32
  0
VERTEX
  8
MESH
 62
      2
 10
         3486.972656250
 20
         4287.398925781
 30
          975.000000000
 70
    32
  0
VERTEX
  8
MESH
 62
      2
 10
         3518.042968750
 20
         4251.722656250
 30
          974.206848145
 70
    32
  0
VERTEX
  8
MESH
 62
      2
 10
         3550.035156250
 20
         4215.204101562
 30
          971.595031738
 70
    32
  0
VERTEX
  8
MESH
 62
      2
 10
         3582.417968750
 20
         4178.445800781
 30
          967.274230957
 70
    32
  0
VERTEX
  8
MESH
 62
      2
 10
         3615.796875000
 20
         4140.625488281
 30
          962.258178711
 70
    32
  0
VERTEX
  8
MESH
 62
      2
 10
         3647.742187500
 20
         4104.108398438
 30
          960.073120117
 70
    32
  0
VERTEX
  8
MESH
 62
      2
 10
         3682.617187500
 20
         4063.547363281
 30
          963.384521484
 70
    32
  0
VERTEX
  8
MESH
 62
      2
 10
         3713.042968750
 20
         4026.613769531
 30
          978.985229492
 70
    32
  0
VERTEX
  8
MESH
 62
      2
 10
         3744.101562500
 20
         3990.063964844
 30
          985.385925293
 70
    32
  0
VERTEX
  8
MESH
 62
      2
 10
         3775.035156250
 20
         3953.085449219
 30
          996.540771484
 70
    32
  0
VERTEX
  8
MESH
 62
      2
 10
         3808.027343750
 20
         3915.081542969
 30
          996.648925781
 70
    32
  0
VERTEX
  8
MESH
 62
      2
 10
         3840.339843750
 20
         3877.675781250
 30
          998.319213867
 70
    32
  0
VERTEX
  8
MESH
 62
      2
 10
         3874.421875000
 20
         3838.220214844
 30
         1000.054504395
 70
    32
  0
VERTEX
  8
MESH
 62
      2
 10
         3906.687500000
 20
         3800.711425781
 30
         1002.977050781
 70
    32
  0
VERTEX
  8
MESH
 62
      2
 10
         3938.484375000
 20
         3762.614257812
 30
         1015.096923828
 70
    32
  0
VERTEX
  8
MESH
 62
      2
 10
         3971.214843750
 20
         3724.466796875
 30
         1018.886840820
 70
    32
  0
VERTEX
  8
MESH
 62
      2
 10
         4003.964843750
 20
         3686.619628906
 30
         1019.991943359
 70
    32
  0
VERTEX
  8
MESH
 62
      2
 10
         4037.246093750
 20
         3648.345214844
 30
         1019.637084961
 70
    32
  0
VERTEX
  8
MESH
 62
      2
 10
         4070.542968750
 20
         3610.587890625
 30
         1014.876342773
 70
    32
  0
VERTEX
  8
MESH
 62
      2
 10
         4102.878906250
 20
         3574.459472656
 30
         1005.852233887
 70
    32
  0
VERTEX
  8
MESH
 62
      2
 10
         4136.117187500
 20
         3535.812988281
 30
         1008.924804688
 70
    32
  0
VERTEX
  8
MESH
 62
      2
 10
         4168.285156250
 20
         3497.396972656
 30
         1020.189941406
 70
    32
  0
VERTEX
  8
MESH
 62
      2
 10
         4198.582031250
 20
         3460.771972656
 30
         1034.443847656
 70
    32
  0
VERTEX
  8
MESH
 62
      2
 10
         4229.535156250
 20
         3423.240722656
 30
         1049.869262695
 70
    32
  0
VERTEX
  8
MESH
 62
      2
 10
         4262.191406250
 20
         3385.022460938
 30
         1054.940185547
 70
    32
  0
VERTEX
  8
MESH
 62
      2
 10
         4294.562500000
 20
         3347.402832031
 30
         1057.777221680
 70
    32
  0
VERTEX
  8
MESH
 62
      2
 10
         4325.160156250
 20
         3310.216796875
 30
         1073.794921875
 70
    32
  0
VERTEX
  8
MESH
 62
      2
 10
         4354.726562500
 20
         3274.000488281
 30
         1091.544067383
 70
    32
  0
VERTEX
  8
MESH
 62
      2
 10
         4383.953125000
 20
         3237.880859375
 30
         1111.767822266
 70
    32
  0
VERTEX
  8
MESH
 62
      2
 10
         4414.925781250
 20
         3200.692382812
 30
         1124.243774414
 70
    32
  0
VERTEX
  8
MESH
 62
      2
 10
         4441.417968750
 20
         3166.920898438
 30
         1150.972045898
 70
    32
  0
VERTEX
  8
MESH
 62
      2
 10
         4467.652343750
 20
         3133.419433594
 30
         1177.947509766
 70
    32
  0
VERTEX
  8
MESH
 62
      2
 10
         4494.457031250
 20
         3099.412109375
 30
         1203.670288086
 70
    32
  0
VERTEX
  8
MESH
 62
      2
 10
         4523.472656250
 20
         3063.885742188
 30
         1220.998657227
 70
    32
  0
VERTEX
  8
MESH
 62
      2
 10
         4553.117187500
 20
         3032.450683594
 30
         1198.907836914
 70
    32
  0
VERTEX
  8
MESH
 62
      2
 10
         4583.250000000
 20
         2995.191406250
 30
         1219.914794922
 70
    32
  0
VERTEX
  8
MESH
 62
      2
 10
         4613.976562500
 20
         2962.421875000
 30
         1198.531005859
 70
    32
  0
VERTEX
  8
MESH
 62
      2
 10
         4646.621093750
 20
         2927.072753906
 30
         1180.167724609
 70
    32
  0
VERTEX
  8
MESH
 62
      2
 10
         4678.515625000
 20
         2892.738281250
 30
         1160.659790039
 70
    32
  0
VERTEX
  8
MESH
 62
      2
 10
         4708.523437500
 20
         2861.040039062
 30
         1137.297607422
 70
    32
  0
VERTEX
  8
MESH
 62
      2
 10
         4739.125000000
 20
         2828.640625000
 30
         1114.112426758
 70
    32
  0
VERTEX
  8
MESH
 62
      2
 10
         4769.937500000
 20
         2795.989257812
 30
         1090.951293945
 70
    32
  0
VERTEX
  8
MESH
 62
      2
 10
         4801.511718750
 20
         2762.123046875
 30
         1070.587646484
 70
    32
  0
VERTEX
  8
MESH
 62
      2
 10
         4833.445312500
 20
         2727.809082031
 30
         1050.467895508
 70
    32
  0
VERTEX
  8
MESH
 62
      2
 10
         4865.457031250
 20
         2692.835937500
 30
         1035.053466797
 70
    32
  0
VERTEX
  8
MESH
 62
      2
 10
         4897.253906250
 20
         2657.478515625
 30
         1024.766357422
 70
    32
  0
VERTEX
  8
MESH
 62
      2
 10
         4930.843750000
 20
         2619.997558594
 30
         1014.999877930
 70
    32
  0
VERTEX
  8
MESH
 62
      2
 10
         4965.621093750
 20
         2580.067382812
 30
         1014.044250488
 70
    32
  0
VERTEX
  8
MESH
 62
      2
 10
         4997.472656250
 20
         2543.671875000
 30
         1011.800781250
 70
    32
  0
VERTEX
  8
MESH
 62
      2
 10
         5028.960937500
 20
         2507.786621094
 30
         1008.709411621
 70
    32
  0
VERTEX
  8
MESH
 62
      2
 10
         5065.773437500
 20
         2465.850585938
 30
         1005.096557617
 70
    32
  0
VERTEX
  8
MESH
 62
      2
 10
         5099.035156250
 20
         2427.943847656
 30
         1001.830993652
 70
    32
  0
VERTEX
  8
MESH
 62
      2
 10
         5130.289062500
 20
         2392.135742188
 30
         1000.379089355
 70
    32
  0
SEQEND
  0
POLYLINE
  8
MESH
 62
      2
 66
     1
 10
0.0
 20
0.0
 30
0.0
 70
     8
  0
VERTEX
  8
MESH
 62
      2
 10
         3301.871093750
 20
         4577.609863281
 30
          970.246398926
 70
    32
  0
VERTEX
  8
MESH
 62
      2
 10
         3335.234375000
 20
         4538.986328125
 30
          971.954833984
 70
    32
  0
VERTEX
  8
MESH
 62
      2
 10
         3366.519531250
 20
         4502.961914062
 30
          971.986450195
 70
    32
  0
VERTEX
  8
MESH
 62
      2
 10
         3400.218750000
 20
         4464.196777344
 30
          971.673217773
 70
    32
  0
VERTEX
  8
MESH
 62
      2
 10
         3430.390625000
 20
         4429.440917969
 30
          971.790283203
 70
    32
  0
VERTEX
  8
MESH
 62
      2
 10
         3464.328125000
 20
         4390.195312500
 30
          973.159240723
 70
    32
  0
VERTEX
  8
MESH
 62
      2
 10
         3502.699218750
 20
         4345.823730469
 30
          974.707153320
 70
    32
  0
VERTEX
  8
MESH
 62
      2
 10
         3532.011718750
 20
         4312.038574219
 30
          974.999938965
 70
    32
  0
VERTEX
  8
MESH
 62
      2
 10
         3564.753906250
 20
         4274.337402344
 30
          975.000000000
 70
    32
  0
VERTEX
  8
MESH
 62
      2
 10
         3596.164062500
 20
         4238.437011719
 30
          972.818359375
 70
    32
  0
VERTEX
  8
MESH
 62
      2
 10
         3630.398437500
 20
         4199.929687500
 30
          965.403076172
 70
    32
  0
VERTEX
  8
MESH
 62
      2
 10
         3662.878906250
 20
         4163.151855469
 30
          960.288635254
 70
    32
  0
VERTEX
  8
MESH
 62
      2
 10
         3696.054687500
 20
         4124.985351562
 30
          960.002014160
 70
    32
  0
VERTEX
  8
MESH
 62
      2
 10
         3727.515625000
 20
         4088.487792969
 30
          962.254394531
 70
    32
  0
VERTEX
  8
MESH
 62
      2
 10
         3759.371093750
 20
         4050.473632812
 30
          973.152832031
 70
    32
  0
VERTEX
  8
MESH
 62
      2
 10
         3790.910156250
 20
         4013.168457031
 30
          981.278137207
 70
    32
  0
VERTEX
  8
MESH
 62
      2
 10
         3822.824218750
 20
         3975.486328125
 30
          988.942810059
 70
    32
  0
VERTEX
  8
MESH
 62
      2
 10
         3855.964843750
 20
         3936.462890625
 30
          995.979125977
 70
    32
  0
VERTEX
  8
MESH
 62
      2
 10
         3888.894531250
 20
         3898.286132812
 30
          998.140991211
 70
    32
  0
VERTEX
  8
MESH
 62
      2
 10
         3919.718750000
 20
         3862.505859375
 30
         1000.475158691
 70
    32
  0
VERTEX
  8
MESH
 62
      2
 10
         3951.417968750
 20
         3824.583007812
 30
         1012.147644043
 70
    32
  0
VERTEX
  8
MESH
 62
      2
 10
         3983.441406250
 20
         3786.752929688
 30
         1019.994934082
 70
    32
  0
VERTEX
  8
MESH
 62
      2
 10
         4016.066406250
 20
         3748.888183594
 30
         1022.429748535
 70
    32
  0
VERTEX
  8
MESH
 62
      2
 10
         4048.781250000
 20
         3711.862792969
 30
         1017.148071289
 70
    32
  0
VERTEX
  8
MESH
 62
      2
 10
         4081.917968750
 20
         3674.459960938
 30
         1011.011108398
 70
    32
  0
VERTEX
  8
MESH
 62
      2
 10
         4114.800781250
 20
         3637.560058594
 30
         1003.128906250
 70
    32
  0
VERTEX
  8
MESH
 62
      2
 10
         4147.171875000
 20
         3600.757324219
 30
          999.277404785
 70
    32
  0
VERTEX
  8
MESH
 62
      2
 10
         4179.375000000
 20
         3562.866699219
 30
         1005.927490234
 70
    32
  0
VERTEX
  8
MESH
 62
      2
 10
         4210.980468750
 20
         3524.969726562
 30
         1018.255004883
 70
    32
  0
VERTEX
  8
MESH
 62
      2
 10
         4241.574218750
 20
         3488.104492188
 30
         1031.670166016
 70
    32
  0
VERTEX
  8
MESH
 62
      2
 10
         4272.523437500
 20
         3450.839843750
 30
         1044.980957031
 70
    32
  0
VERTEX
  8
MESH
 62
      2
 10
         4305.289062500
 20
         3413.020019531
 30
         1045.753906250
 70
    32
  0
VERTEX
  8
MESH
 62
      2
 10
         4338.070312500
 20
         3375.279296875
 30
         1045.695190430
 70
    32
  0
VERTEX
  8
MESH
 62
      2
 10
         4369.296875000
 20
         3337.974609375
 30
         1056.735839844
 70
    32
  0
VERTEX
  8
MESH
 62
      2
 10
         4398.480468750
 20
         3302.071289062
 30
         1075.583007812
 70
    32
  0
VERTEX
  8
MESH
 62
      2
 10
         4425.734375000
 20
         3267.703613281
 30
         1100.020996094
 70
    32
  0
VERTEX
  8
MESH
 62
      2
 10
         4453.308593750
 20
         3233.078125000
 30
         1123.549560547
 70
    32
  0
VERTEX
  8
MESH
 62
      2
 10
         4480.015625000
 20
         3199.206542969
 30
         1149.096801758
 70
    32
  0
VERTEX
  8
MESH
 62
      2
 10
         4505.894531250
 20
         3166.067871094
 30
         1176.453125000
 70
    32
  0
VERTEX
  8
MESH
 62
      2
 10
         4532.828125000
 20
         3132.006347656
 30
         1201.411254883
 70
    32
  0
VERTEX
  8
MESH
 62
      2
 10
         4561.933593750
 20
         3096.104980469
 30
         1220.964721680
 70
    32
  0
VERTEX
  8
MESH
 62
      2
 10
         4594.441406250
 20
         3058.468750000
 30
         1222.617065430
 70
    32
  0
VERTEX
  8
MESH
 62
      2
 10
         4627.605468750
 20
         3022.340332031
 30
         1205.768066406
 70
    32
  0
VERTEX
  8
MESH
 62
      2
 10
         4658.769531250
 20
         2989.093750000
 30
         1184.194091797
 70
    32
  0
VERTEX
  8
MESH
 62
      2
 10
         4689.878906250
 20
         2955.724609375
 30
         1164.149169922
 70
    32
  0
VERTEX
  8
MESH
 62
      2
 10
         4721.406250000
 20
         2921.735839844
 30
         1145.184326172
 70
    32
  0
VERTEX
  8
MESH
 62
      2
 10
         4752.824218750
 20
         2887.996093750
 30
         1125.300415039
 70
    32
  0
VERTEX
  8
MESH
 62
      2
 10
         4783.511718750
 20
         2855.390136719
 30
         1102.947631836
 70
    32
  0
VERTEX
  8
MESH
 62
      2
 10
         4812.941406250
 20
         2824.591796875
 30
         1077.677612305
 70
    32
  0
VERTEX
  8
MESH
 62
      2
 10
         4843.863281250
 20
         2791.743164062
 30
         1055.134155273
 70
    32
  0
VERTEX
  8
MESH
 62
      2
 10
         4876.023437500
 20
         2756.228027344
 30
         1042.692626953
 70
    32
  0
VERTEX
  8
MESH
 62
      2
 10
         4908.230468750
 20
         2720.841308594
 30
         1028.865844727
 70
    32
  0
VERTEX
  8
MESH
 62
      2
 10
         4941.566406250
 20
         2683.429687500
 30
         1020.899353027
 70
    32
  0
VERTEX
  8
MESH
 62
      2
 10
         4973.125000000
 20
         2648.004394531
 30
         1013.396423340
 70
    32
  0
VERTEX
  8
MESH
 62
      2
 10
         5006.171875000
 20
         2610.306640625
 30
         1010.489990234
 70
    32
  0
VERTEX
  8
MESH
 62
      2
 10
         5040.160156250
 20
         2571.233398438
 30
         1010.000732422
 70
    32
  0
VERTEX
  8
MESH
 62
      2
 10
         5073.746093750
 20
         2532.908691406
 30
         1007.146423340
 70
    32
  0
VERTEX
  8
MESH
 62
      2
 10
         5102.582031250
 20
         2500.056152344
 30
         1004.318725586
 70
    32
  0
VERTEX
  8
MESH
 62
      2
 10
         5139.925781250
 20
         2457.502929688
 30
         1000.652770996
 70
    32
  0
VERTEX
  8
MESH
 62
      2
 10
         5171.457031250
 20
         2421.368164062
 30
          999.243408203
 70
    32
  0
SEQEND
  0
POLYLINE
  8
MESH
 62
      2
 66
     1
 10
0.0
 20
0.0
 30
0.0
 70
     8
  0
VERTEX
  8
MESH
 62
      2
 10
         3318.296875000
 20
         4635.224121094
 30
          970.000000000
 70
    32
  0
VERTEX
  8
MESH
 62
      2
 10
         3331.363281250
 20
         4620.229492188
 30
          969.582092285
 70
    32
  0
VERTEX
  8
MESH
 62
      2
 10
         3365.773437500
 20
         4580.506347656
 30
          970.436401367
 70
    32
  0
VERTEX
  8
MESH
 62
      2
 10
         3399.894531250
 20
         4541.216308594
 30
          970.434143066
 70
    32
  0
VERTEX
  8
MESH
 62
      2
 10
         3428.511718750
 20
         4508.317871094
 30
          970.005737305
 70
    32
  0
VERTEX
  8
MESH
 62
      2
 10
         3461.914062500
 20
         4469.826171875
 30
          970.281005859
 70
    32
  0
VERTEX
  8
MESH
 62
      2
 10
         3498.324218750
 20
         4427.780761719
 30
          971.254089355
 70
    32
  0
VERTEX
  8
MESH
 62
      2
 10
         3529.781250000
 20
         4391.508789062
 30
          971.693542480
 70
    32
  0
VERTEX
  8
MESH
 62
      2
 10
         3561.679687500
 20
         4354.701171875
 30
          972.333068848
 70
    32
  0
VERTEX
  8
MESH
 62
      2
 10
         3594.429687500
 20
         4316.920898438
 30
          972.903808594
 70
    32
  0
VERTEX
  8
MESH
 62
      2
 10
         3627.394531250
 20
         4278.789062500
 30
          974.375366211
 70
    32
  0
VERTEX
  8
MESH
 62
      2
 10
         3661.007812500
 20
         4240.863769531
 30
          967.957946777
 70
    32
  0
VERTEX
  8
MESH
 62
      2
 10
         3693.242187500
 20
         4204.533691406
 30
          961.536071777
 70
    32
  0
VERTEX
  8
MESH
 62
      2
 10
         3726.546875000
 20
         4166.380371094
 30
          959.948425293
 70
    32
  0
VERTEX
  8
MESH
 62
      2
 10
         3760.191406250
 20
         4127.869628906
 30
          958.089477539
 70
    32
  0
VERTEX
  8
MESH
 62
      2
 10
         3791.113281250
 20
         4091.090332031
 30
          967.701660156
 70
    32
  0
VERTEX
  8
MESH
 62
      2
 10
         3822.898437500
 20
         4053.104492188
 30
          979.051513672
 70
    32
  0
VERTEX
  8
MESH
 62
      2
 10
         3855.503906250
 20
         4015.322265625
 30
          981.043701172
 70
    32
  0
VERTEX
  8
MESH
 62
      2
 10
         3885.937500000
 20
         3978.548339844
 30
          995.206665039
 70
    32
  0
VERTEX
  8
MESH
 62
      2
 10
         3920.695312500
 20
         3938.166503906
 30
          998.130371094
 70
    32
  0
VERTEX
  8
MESH
 62
      2
 10
         3952.011718750
 20
         3901.656738281
 30
         1001.817260742
 70
    32
  0
VERTEX
  8
MESH
 62
      2
 10
         3984.261718750
 20
         3863.610351562
 30
         1009.277465820
 70
    32
  0
VERTEX
  8
MESH
 62
      2
 10
         4015.527343750
 20
         3826.232910156
 30
         1020.562683105
 70
    32
  0
VERTEX
  8
MESH
 62
      2
 10
         4048.679687500
 20
         3787.560058594
 30
         1024.660888672
 70
    32
  0
VERTEX
  8
MESH
 62
      2
 10
         4081.609375000
 20
         3750.333007812
 30
         1019.035217285
 70
    32
  0
VERTEX
  8
MESH
 62
      2
 10
         4114.292968750
 20
         3714.423828125
 30
         1004.934020996
 70
    32
  0
VERTEX
  8
MESH
 62
      2
 10
         4147.082031250
 20
         3677.859863281
 30
          995.197570801
 70
    32
  0
VERTEX
  8
MESH
 62
      2
 10
         4180.539062500
 20
         3639.311035156
 30
          995.386230469
 70
    32
  0
VERTEX
  8
MESH
 62
      2
 10
         4213.199218750
 20
         3601.062011719
 30
         1000.646911621
 70
    32
  0
VERTEX
  8
MESH
 62
      2
 10
         4244.804687500
 20
         3563.328613281
 30
         1011.611450195
 70
    32
  0
VERTEX
  8
MESH
 62
      2
 10
         4276.933593750
 20
         3525.258789062
 30
         1020.444580078
 70
    32
  0
VERTEX
  8
MESH
 62
      2
 10
         4308.421875000
 20
         3487.534179688
 30
         1032.437133789
 70
    32
  0
VERTEX
  8
MESH
 62
      2
 10
         4341.171875000
 20
         3449.162597656
 30
         1037.877807617
 70
    32
  0
VERTEX
  8
MESH
 62
      2
 10
         4373.089843750
 20
         3411.274902344
 30
         1047.160400391
 70
    32
  0
VERTEX
  8
MESH
 62
      2
 10
         4403.187500000
 20
         3374.476074219
 30
         1064.724487305
 70
    32
  0
VERTEX
  8
MESH
 62
      2
 10
         4431.656250000
 20
         3338.965820312
 30
         1087.026977539
 70
    32
  0
VERTEX
  8
MESH
 62
      2
 10
         4460.601562500
 20
         3303.061035156
 30
         1108.131469727
 70
    32
  0
VERTEX
  8
MESH
 62
      2
 10
         4489.191406250
 20
         3267.462890625
 30
         1130.041870117
 70
    32
  0
VERTEX
  8
MESH
 62
      2
 10
         4515.828125000
 20
         3233.589355469
 30
         1156.299072266
 70
    32
  0
VERTEX
  8
MESH
 62
      2
 10
         4542.882812500
 20
         3199.312500000
 30
         1181.853149414
 70
    32
  0
VERTEX
  8
MESH
 62
      2
 10
         4571.332031250
 20
         3163.812011719
 30
         1204.332763672
 70
    32
  0
VERTEX
  8
MESH
 62
      2
 10
         4602.011718750
 20
         3126.579101562
 30
         1219.934204102
 70
    32
  0
VERTEX
  8
MESH
 62
      2
 10
         4633.039062500
 20
         3092.103027344
 30
         1209.704223633
 70
    32
  0
VERTEX
  8
MESH
 62
      2
 10
         4665.347656250
 20
         3057.377441406
 30
         1189.450439453
 70
    32
  0
VERTEX
  8
MESH
 62
      2
 10
         4694.800781250
 20
         3026.925781250
 30
         1161.113525391
 70
    32
  0
VERTEX
  8
MESH
 62
      2
 10
         4724.484375000
 20
         2995.959472656
 30
         1134.833862305
 70
    32
  0
VERTEX
  8
MESH
 62
      2
 10
         4755.265625000
 20
         2963.340820312
 30
         1111.709960938
 70
    32
  0
VERTEX
  8
MESH
 62
      2
 10
         4788.171875000
 20
         2926.604003906
 30
         1102.265747070
 70
    32
  0
VERTEX
  8
MESH
 62
      2
 10
         4820.472656250
 20
         2891.351074219
 30
         1086.434326172
 70
    32
  0
VERTEX
  8
MESH
 62
      2
 10
         4851.437500000
 20
         2858.364746094
 30
         1064.581298828
 70
    32
  0
VERTEX
  8
MESH
 62
      2
 10
         4882.546875000
 20
         2824.949218750
 30
         1044.897338867
 70
    32
  0
VERTEX
  8
MESH
 62
      2
 10
         4915.113281250
 20
         2789.020507812
 30
         1032.030273438
 70
    32
  0
VERTEX
  8
MESH
 62
      2
 10
         4948.601562500
 20
         2751.520996094
 30
         1023.384216309
 70
    32
  0
VERTEX
  8
MESH
 62
      2
 10
         4982.269531250
 20
         2713.549804688
 30
         1016.876647949
 70
    32
  0
VERTEX
  8
MESH
 62
      2
 10
         5015.035156250
 20
         2676.527343750
 30
         1011.121154785
 70
    32
  0
VERTEX
  8
MESH
 62
      2
 10
         5047.355468750
 20
         2639.444824219
 30
         1010.002868652
 70
    32
  0
VERTEX
  8
MESH
 62
      2
 10
         5080.511718750
 20
         2601.410644531
 30
         1008.844421387
 70
    32
  0
VERTEX
  8
MESH
 62
      2
 10
         5115.914062500
 20
         2561.020507812
 30
         1005.826049805
 70
    32
  0
VERTEX
  8
MESH
 62
      2
 10
         5146.125000000
 20
         2526.591796875
 30
         1002.880065918
 70
    32
  0
VERTEX
  8
MESH
 62
      2
 10
         5179.363281250
 20
         2488.670898438
 30
         1000.000000000
 70
    32
  0
VERTEX
  8
MESH
 62
      2
 10
         5212.628906250
 20
         2450.600585938
 30
          998.107666016
 70
    32
  0
SEQEND
  0
POLYLINE
  8
MESH
 62
      2
 66
     1
 10
0.0
 20
0.0
 30
0.0
 70
     8
  0
VERTEX
  8
MESH
 62
      2
 10
         4965.613281250
 20
         2275.206054688
 30
         1004.921936035
 70
    32
  0
VERTEX
  8
MESH
 62
      2
 10
         4933.812500000
 20
         2311.590332031
 30
         1006.814086914
 70
    32
  0
VERTEX
  8
MESH
 62
      2
 10
         4898.859375000
 20
         2351.428222656
 30
         1010.138000488
 70
    32
  0
VERTEX
  8
MESH
 62
      2
 10
         4863.234375000
 20
         2392.024902344
 30
         1013.635314941
 70
    32
  0
VERTEX
  8
MESH
 62
      2
 10
         4829.417968750
 20
         2430.554687500
 30
         1016.954589844
 70
    32
  0
VERTEX
  8
MESH
 62
      2
 10
         4796.695312500
 20
         2467.897460938
 30
         1019.706542969
 70
    32
  0
VERTEX
  8
MESH
 62
      2
 10
         4763.359375000
 20
         2505.633789062
 30
         1025.015258789
 70
    32
  0
VERTEX
  8
MESH
 62
      2
 10
         4730.773437500
 20
         2541.506347656
 30
         1038.481323242
 70
    32
  0
VERTEX
  8
MESH
 62
      2
 10
         4699.601562500
 20
         2574.912597656
 30
         1058.814697266
 70
    32
  0
VERTEX
  8
MESH
 62
      2
 10
         4668.707031250
 20
         2607.983886719
 30
         1079.296142578
 70
    32
  0
VERTEX
  8
MESH
 62
      2
 10
         4637.546875000
 20
         2641.474609375
 30
         1098.829345703
 70
    32
  0
VERTEX
  8
MESH
 62
      2
 10
         4605.828125000
 20
         2675.904296875
 30
         1115.976440430
 70
    32
  0
VERTEX
  8
MESH
 62
      2
 10
         4574.207031250
 20
         2710.269042969
 30
         1132.687988281
 70
    32
  0
VERTEX
  8
MESH
 62
      2
 10
         4542.511718750
 20
         2745.012207031
 30
         1147.022216797
 70
    32
  0
VERTEX
  8
MESH
 62
      2
 10
         4510.238281250
 20
         2780.740234375
 30
         1158.783569336
 70
    32
  0
VERTEX
  8
MESH
 62
      2
 10
         4478.976562500
 20
         2814.590332031
 30
         1176.335571289
 70
    32
  0
VERTEX
  8
MESH
 62
      2
 10
         4450.890625000
 20
         2843.430664062
 30
         1204.970703125
 70
    32
  0
VERTEX
  8
MESH
 62
      2
 10
         4423.027343750
 20
         2871.951171875
 30
         1234.115600586
 70
    32
  0
VERTEX
  8
MESH
 62
      2
 10
         4391.390625000
 20
         2906.371582031
 30
         1250.505249023
 70
    32
  0
VERTEX
  8
MESH
 62
      2
 10
         4362.121093750
 20
         2941.288574219
 30
         1240.584960938
 70
    32
  0
VERTEX
  8
MESH
 62
      2
 10
         4323.828125000
 20
         2989.096511841
 30
         1210.170818329
 70
    32
  0
VERTEX
  8
MESH
 62
      2
 10
         4285.535156250
 20
         3036.904457092
 30
         1179.756673813
 70
    32
  0
VERTEX
  8
MESH
 62
      2
 10
         4247.242187500
 20
         3084.712402344
 30
         1149.342529297
 70
    32
  0
VERTEX
  8
MESH
 62
      2
 10
         4219.523437500
 20
         3119.563476562
 30
         1125.359497070
 70
    32
  0
VERTEX
  8
MESH
 62
      2
 10
         4189.609375000
 20
         3155.974609375
 30
         1109.244018555
 70
    32
  0
VERTEX
  8
MESH
 62
      2
 10
         4158.285156250
 20
         3193.233398438
 30
         1099.494262695
 70
    32
  0
VERTEX
  8
MESH
 62
      2
 10
         4128.863281250
 20
         3229.810058594
 30
         1077.407836914
 70
    32
  0
VERTEX
  8
MESH
 62
      2
 10
         4100.675781250
 20
         3264.581054688
 30
         1058.432739258
 70
    32
  0
VERTEX
  8
MESH
 62
      2
 10
         4068.425781250
 20
         3303.170898438
 30
         1046.527221680
 70
    32
  0
VERTEX
  8
MESH
 62
      2
 10
         4038.468750000
 20
         3339.365722656
 30
         1032.598632812
 70
    32
  0
VERTEX
  8
MESH
 62
      2
 10
         4006.378906250
 20
         3377.799316406
 30
         1020.425842285
 70
    32
  0
VERTEX
  8
MESH
 62
      2
 10
         3975.089843750
 20
         3414.756835938
 30
         1012.855163574
 70
    32
  0
VERTEX
  8
MESH
 62
      2
 10
         3941.808593750
 20
         3453.694824219
 30
         1007.760253906
 70
    32
  0
VERTEX
  8
MESH
 62
      2
 10
         3909.742187500
 20
         3491.434570312
 30
         1001.088134766
 70
    32
  0
VERTEX
  8
MESH
 62
      2
 10
         3877.164062500
 20
         3529.582519531
 30
          995.921508789
 70
    32
  0
VERTEX
  8
MESH
 62
      2
 10
         3844.507812500
 20
         3567.653808594
 30
          992.018005371
 70
    32
  0
VERTEX
  8
MESH
 62
      2
 10
         3811.328125000
 20
         3606.105468750
 30
          990.001953125
 70
    32
  0
VERTEX
  8
MESH
 62
      2
 10
         3778.238281250
 20
         3644.338867188
 30
          988.932739258
 70
    32
  0
VERTEX
  8
MESH
 62
      2
 10
         3746.277343750
 20
         3681.000488281
 30
          990.093078613
 70
    32
  0
VERTEX
  8
MESH
 62
      2
 10
         3712.816406250
 20
         3719.288085938
 30
          992.058288574
 70
    32
  0
VERTEX
  8
MESH
 62
      2
 10
         3679.156250000
 20
         3758.013183594
 30
          992.287597656
 70
    32
  0
VERTEX
  8
MESH
 62
      2
 10
         3645.648437500
 20
         3796.684082031
 30
          991.537109375
 70
    32
  0
VERTEX
  8
MESH
 62
      2
 10
         3613.601562500
 20
         3833.636230469
 30
          991.112854004
 70
    32
  0
VERTEX
  8
MESH
 62
      2
 10
         3581.398437500
 20
         3871.702148438
 30
          983.059143066
 70
    32
  0
VERTEX
  8
MESH
 62
      2
 10
         3551.500000000
 20
         3908.334960938
 30
          965.002136230
 70
    32
  0
VERTEX
  8
MESH
 62
      2
 10
         3523.121093750
 20
         3941.010742188
 30
          965.000000000
 70
    32
  0
VERTEX
  8
MESH
 62
      2
 10
         3481.511718750
 20
         3988.921386719
 30
          965.000000000
 70
    32
  0
VERTEX
  8
MESH
 62
      2
 10
         3450.175781250
 20
         4025.001464844
 30
          965.000000000
 70
    32
  0
VERTEX
  8
MESH
 62
      2
 10
         3417.242187500
 20
         4062.714355469
 30
          966.717956543
 70
    32
  0
VERTEX
  8
MESH
 62
      2
 10
         3387.386718750
 20
         4096.863281250
 30
          968.581176758
 70
    32
  0
VERTEX
  8
MESH
 62
      2
 10
         3352.699218750
 20
         4136.459960938
 30
          971.390319824
 70
    32
  0
VERTEX
  8
MESH
 62
      2
 10
         3319.910156250
 20
         4173.638183594
 30
          976.084045410
 70
    32
  0
VERTEX
  8
MESH
 62
      2
 10
         3287.277343750
 20
         4210.851074219
 30
          979.067077637
 70
    32
  0
VERTEX
  8
MESH
 62
      2
 10
         3255.863281250
 20
         4247.126953125
 30
          978.228759766
 70
    32
  0
VERTEX
  8
MESH
 62
      2
 10
         3221.335937500
 20
         4287.624511719
 30
          972.143249512
 70
    32
  0
SEQEND
  0
POLYLINE
  8
MESH
 62
      2
 66
     1
 10
0.0
 20
0.0
 30
0.0
 70
     8
  0
VERTEX
  8
MESH
 62
      2
 10
         5006.781250000
 20
         2304.438476562
 30
         1003.786254883
 70
    32
  0
VERTEX
  8
MESH
 62
      2
 10
         4976.089843750
 20
         2339.580078125
 30
         1005.392456055
 70
    32
  0
VERTEX
  8
MESH
 62
      2
 10
         4936.191406250
 20
         2385.043945312
 30
         1009.309082031
 70
    32
  0
VERTEX
  8
MESH
 62
      2
 10
         4903.714843750
 20
         2422.048339844
 30
         1012.497131348
 70
    32
  0
VERTEX
  8
MESH
 62
      2
 10
         4871.695312500
 20
         2458.534667969
 30
         1015.640319824
 70
    32
  0
VERTEX
  8
MESH
 62
      2
 10
         4837.406250000
 20
         2497.678222656
 30
         1018.388977051
 70
    32
  0
VERTEX
  8
MESH
 62
      2
 10
         4803.925781250
 20
         2535.829101562
 30
         1021.656311035
 70
    32
  0
VERTEX
  8
MESH
 62
      2
 10
         4770.503906250
 20
         2572.418945312
 30
         1037.162841797
 70
    32
  0
VERTEX
  8
MESH
 62
      2
 10
         4738.726562500
 20
         2606.600585938
 30
         1056.871582031
 70
    32
  0
VERTEX
  8
MESH
 62
      2
 10
         4706.425781250
 20
         2641.501953125
 30
         1075.606933594
 70
    32
  0
VERTEX
  8
MESH
 62
      2
 10
         4674.757812500
 20
         2675.406250000
 30
         1096.519897461
 70
    32
  0
VERTEX
  8
MESH
 62
      2
 10
         4642.609375000
 20
         2710.290039062
 30
         1114.012817383
 70
    32
  0
VERTEX
  8
MESH
 62
      2
 10
         4610.019531250
 20
         2745.682128906
 30
         1131.444335938
 70
    32
  0
VERTEX
  8
MESH
 62
      2
 10
         4577.964843750
 20
         2780.461914062
 30
         1148.898925781
 70
    32
  0
VERTEX
  8
MESH
 62
      2
 10
         4546.050781250
 20
         2814.870117188
 30
         1168.015502930
 70
    32
  0
VERTEX
  8
MESH
 62
      2
 10
         4513.464843750
 20
         2850.707519531
 30
         1181.790893555
 70
    32
  0
VERTEX
  8
MESH
 62
      2
 10
         4481.593750000
 20
         2885.186035156
 30
         1199.963745117
 70
    32
  0
VERTEX
  8
MESH
 62
      2
 10
         4452.304687500
 20
         2915.493164062
 30
         1227.914062500
 70
    32
  0
VERTEX
  8
MESH
 62
      2
 10
         4421.359375000
 20
         2949.624023438
 30
         1240.194213867
 70
    32
  0
VERTEX
  8
MESH
 62
      2
 10
         4391.210937500
 20
         2985.503417969
 30
         1230.696533203
 70
    32
  0
VERTEX
  8
MESH
 62
      2
 10
         4360.359375000
 20
         3023.630203247
 30
         1209.383056641
 70
    32
  0
VERTEX
  8
MESH
 62
      2
 10
         4329.507812500
 20
         3061.756996155
 30
         1188.069580078
 70
    32
  0
VERTEX
  8
MESH
 62
      2
 10
         4298.656250000
 20
         3099.883789062
 30
         1166.756103516
 70
    32
  0
VERTEX
  8
MESH
 62
      2
 10
         4270.390625000
 20
         3135.258300781
 30
         1143.594360352
 70
    32
  0
VERTEX
  8
MESH
 62
      2
 10
         4239.820312500
 20
         3172.461914062
 30
         1127.160400391
 70
    32
  0
VERTEX
  8
MESH
 62
      2
 10
         4209.312500000
 20
         3209.634765625
 30
         1110.472045898
 70
    32
  0
VERTEX
  8
MESH
 62
      2
 10
         4179.984375000
 20
         3245.825195312
 30
         1090.614624023
 70
    32
  0
VERTEX
  8
MESH
 62
      2
 10
         4150.789062500
 20
         3281.984375000
 30
         1069.827392578
 70
    32
  0
VERTEX
  8
MESH
 62
      2
 10
         4120.113281250
 20
         3319.209960938
 30
         1054.260375977
 70
    32
  0
VERTEX
  8
MESH
 62
      2
 10
         4089.113281250
 20
         3356.684082031
 30
         1039.701904297
 70
    32
  0
VERTEX
  8
MESH
 62
      2
 10
         4057.859375000
 20
         3394.370117188
 30
         1025.780273438
 70
    32
  0
VERTEX
  8
MESH
 62
      2
 10
         4026.386718750
 20
         3431.981445312
 30
         1014.520263672
 70
    32
  0
VERTEX
  8
MESH
 62
      2
 10
         3993.605468750
 20
         3470.363769531
 30
         1009.341308594
 70
    32
  0
VERTEX
  8
MESH
 62
      2
 10
         3959.882812500
 20
         3509.301757812
 30
         1008.445678711
 70
    32
  0
VERTEX
  8
MESH
 62
      2
 10
         3927.035156250
 20
         3547.446289062
 30
         1005.803161621
 70
    32
  0
VERTEX
  8
MESH
 62
      2
 10
         3894.179687500
 20
         3585.931152344
 30
         1000.444763184
 70
    32
  0
VERTEX
  8
MESH
 62
      2
 10
         3862.281250000
 20
         3623.857421875
 30
          990.656616211
 70
    32
  0
VERTEX
  8
MESH
 62
      2
 10
         3828.964843750
 20
         3662.273925781
 30
          990.172790527
 70
    32
  0
VERTEX
  8
MESH
 62
      2
 10
         3795.707031250
 20
         3700.218750000
 30
          993.069580078
 70
    32
  0
VERTEX
  8
MESH
 62
      2
 10
         3762.476562500
 20
         3738.255371094
 30
          994.921630859
 70
    32
  0
VERTEX
  8
MESH
 62
      2
 10
         3728.832031250
 20
         3776.797363281
 30
          996.533020020
 70
    32
  0
VERTEX
  8
MESH
 62
      2
 10
         3696.437500000
 20
         3814.279296875
 30
          995.040222168
 70
    32
  0
VERTEX
  8
MESH
 62
      2
 10
         3663.253906250
 20
         3852.481933594
 30
          995.099609375
 70
    32
  0
VERTEX
  8
MESH
 62
      2
 10
         3629.648437500
 20
         3891.184082031
 30
          995.002563477
 70
    32
  0
VERTEX
  8
MESH
 62
      2
 10
         3598.742187500
 20
         3928.555664062
 30
          980.383300781
 70
    32
  0
VERTEX
  8
MESH
 62
      2
 10
         3571.960937500
 20
         3961.271972656
 30
          965.000000000
 70
    32
  0
VERTEX
  8
MESH
 62
      2
 10
         3535.500000000
 20
         4003.259277344
 30
          965.000000000
 70
    32
  0
VERTEX
  8
MESH
 62
      2
 10
         3502.136718750
 20
         4041.669433594
 30
          965.000000000
 70
    32
  0
VERTEX
  8
MESH
 62
      2
 10
         3467.222656250
 20
         4081.681152344
 30
          966.568603516
 70
    32
  0
VERTEX
  8
MESH
 62
      2
 10
         3436.871093750
 20
         4116.476074219
 30
          967.852111816
 70
    32
  0
VERTEX
  8
MESH
 62
      2
 10
         3400.960937500
 20
         4157.583984375
 30
          969.792602539
 70
    32
  0
VERTEX
  8
MESH
 62
      2
 10
         3368.566406250
 20
         4194.600097656
 30
          972.110473633
 70
    32
  0
VERTEX
  8
MESH
 62
      2
 10
         3336.531250000
 20
         4231.129882812
 30
          975.007568359
 70
    32
  0
VERTEX
  8
MESH
 62
      2
 10
         3304.164062500
 20
         4268.028320312
 30
          978.039672852
 70
    32
  0
VERTEX
  8
MESH
 62
      2
 10
         3269.925781250
 20
         4307.497070312
 30
          977.674804688
 70
    32
  0
VERTEX
  8
MESH
 62
      2
 10
         3237.441406250
 20
         4345.621582031
 30
          971.763916016
 70
    32
  0
SEQEND
  0
POLYLINE
  8
MESH
 62
      2
 66
     1
 10
0.0
 20
0.0
 30
0.0
 70
     8
  0
VERTEX
  8
MESH
 62
      2
 10
         5047.953125000
 20
         2333.670898438
 30
         1002.650512695
 70
    32
  0
VERTEX
  8
MESH
 62
      2
 10
         5014.867187500
 20
         2371.548828125
 30
         1004.421875000
 70
    32
  0
VERTEX
  8
MESH
 62
      2
 10
         4983.394531250
 20
         2407.409179688
 30
         1007.511230469
 70
    32
  0
VERTEX
  8
MESH
 62
      2
 10
         4948.589843750
 20
         2447.072265625
 30
         1010.928161621
 70
    32
  0
VERTEX
  8
MESH
 62
      2
 10
         4915.914062500
 20
         2484.298828125
 30
         1014.135253906
 70
    32
  0
VERTEX
  8
MESH
 62
      2
 10
         4881.898437500
 20
         2523.056640625
 30
         1017.470458984
 70
    32
  0
VERTEX
  8
MESH
 62
      2
 10
         4848.535156250
 20
         2561.210449219
 30
         1019.674194336
 70
    32
  0
VERTEX
  8
MESH
 62
      2
 10
         4816.156250000
 20
         2597.312988281
 30
         1029.307128906
 70
    32
  0
VERTEX
  8
MESH
 62
      2
 10
         4783.527343750
 20
         2633.111816406
 30
         1043.773315430
 70
    32
  0
VERTEX
  8
MESH
 62
      2
 10
         4750.890625000
 20
         2668.685546875
 30
         1060.190551758
 70
    32
  0
VERTEX
  8
MESH
 62
      2
 10
         4719.562500000
 20
         2702.271484375
 30
         1080.526733398
 70
    32
  0
VERTEX
  8
MESH
 62
      2
 10
         4688.382812500
 20
         2735.584472656
 30
         1101.701049805
 70
    32
  0
VERTEX
  8
MESH
 62
      2
 10
         4656.902343750
 20
         2769.197265625
 30
         1123.272949219
 70
    32
  0
VERTEX
  8
MESH
 62
      2
 10
         4625.054687500
 20
         2803.433593750
 30
         1143.184570312
 70
    32
  0
VERTEX
  8
MESH
 62
      2
 10
         4594.050781250
 20
         2836.418457031
 30
         1165.389526367
 70
    32
  0
VERTEX
  8
MESH
 62
      2
 10
         4562.738281250
 20
         2869.906250000
 30
         1186.401977539
 70
    32
  0
VERTEX
  8
MESH
 62
      2
 10
         4530.308593750
 20
         2905.018066406
 30
         1204.622924805
 70
    32
  0
VERTEX
  8
MESH
 62
      2
 10
         4498.808593750
 20
         2938.665039062
 30
         1226.106079102
 70
    32
  0
VERTEX
  8
MESH
 62
      2
 10
         4463.453125000
 20
         2978.107910156
 30
         1236.472290039
 70
    32
  0
VERTEX
  8
MESH
 62
      2
 10
         4442.167968750
 20
         3005.829101562
 30
         1210.183227539
 70
    32
  0
VERTEX
  8
MESH
 62
      2
 10
         4410.791667938
 20
         3043.647293091
 30
         1196.355388641
 70
    32
  0
VERTEX
  8
MESH
 62
      2
 10
         4379.415365219
 20
         3081.465492249
 30
         1182.527547836
 70
    32
  0
VERTEX
  8
MESH
 62
      2
 10
         4348.039062500
 20
         3119.283691406
 30
         1168.699707031
 70
    32
  0
VERTEX
  8
MESH
 62
      2
 10
         4318.273437500
 20
         3155.927734375
 30
         1149.268066406
 70
    32
  0
VERTEX
  8
MESH
 62
      2
 10
         4288.492187500
 20
         3192.531738281
 30
         1130.341308594
 70
    32
  0
VERTEX
  8
MESH
 62
      2
 10
         4259.390625000
 20
         3228.586425781
 30
         1109.502685547
 70
    32
  0
VERTEX
  8
MESH
 62
      2
 10
         4229.054687500
 20
         3265.610351562
 30
         1092.375244141
 70
    32
  0
VERTEX
  8
MESH
 62
      2
 10
         4198.097656250
 20
         3303.139160156
 30
         1076.946899414
 70
    32
  0
VERTEX
  8
MESH
 62
      2
 10
         4167.527343750
 20
         3340.304199219
 30
         1060.881713867
 70
    32
  0
VERTEX
  8
MESH
 62
      2
 10
         4136.789062500
 20
         3377.570312500
 30
         1045.546264648
 70
    32
  0
VERTEX
  8
MESH
 62
      2
 10
         4105.785156250
 20
         3415.124023438
 30
         1030.351074219
 70
    32
  0
VERTEX
  8
MESH
 62
      2
 10
         4074.234375000
 20
         3452.913085938
 30
         1018.405029297
 70
    32
  0
VERTEX
  8
MESH
 62
      2
 10
         4041.937500000
 20
         3491.022460938
 30
         1010.858947754
 70
    32
  0
VERTEX
  8
MESH
 62
      2
 10
         4008.347656250
 20
         3529.466796875
 30
         1012.755859375
 70
    32
  0
VERTEX
  8
MESH
 62
      2
 10
         3974.996093750
 20
         3567.281738281
 30
         1017.543518066
 70
    32
  0
VERTEX
  8
MESH
 62
      2
 10
         3942.328125000
 20
         3605.598632812
 30
         1011.808166504
 70
    32
  0
VERTEX
  8
MESH
 62
      2
 10
         3910.398437500
 20
         3643.633300781
 30
         1001.424865723
 70
    32
  0
VERTEX
  8
MESH
 62
      2
 10
         3877.769531250
 20
         3681.925781250
 30
          995.478027344
 70
    32
  0
VERTEX
  8
MESH
 62
      2
 10
         3844.476562500
 20
         3720.320800781
 30
          994.997863770
 70
    32
  0
VERTEX
  8
MESH
 62
      2
 10
         3811.226562500
 20
         3758.382324219
 30
          996.863464355
 70
    32
  0
VERTEX
  8
MESH
 62
      2
 10
         3777.718750000
 20
         3796.607421875
 30
          999.765258789
 70
    32
  0
VERTEX
  8
MESH
 62
      2
 10
         3744.718750000
 20
         3834.579101562
 30
          999.990844727
 70
    32
  0
VERTEX
  8
MESH
 62
      2
 10
         3711.550781250
 20
         3872.816406250
 30
          999.591064453
 70
    32
  0
VERTEX
  8
MESH
 62
      2
 10
         3677.972656250
 20
         3911.584472656
 30
          998.748474121
 70
    32
  0
VERTEX
  8
MESH
 62
      2
 10
         3645.832031250
 20
         3949.256835938
 30
          993.276672363
 70
    32
  0
VERTEX
  8
MESH
 62
      2
 10
         3616.234375000
 20
         3985.637207031
 30
          974.455932617
 70
    32
  0
VERTEX
  8
MESH
 62
      2
 10
         3587.011718750
 20
         4020.438476562
 30
          965.000000000
 70
    32
  0
VERTEX
  8
MESH
 62
      2
 10
         3550.789062500
 20
         4062.150878906
 30
          965.000000000
 70
    32
  0
VERTEX
  8
MESH
 62
      2
 10
         3516.878906250
 20
         4101.037597656
 30
          966.296875000
 70
    32
  0
VERTEX
  8
MESH
 62
      2
 10
         3489.507812500
 20
         4132.396484375
 30
          967.555297852
 70
    32
  0
VERTEX
  8
MESH
 62
      2
 10
         3448.867187500
 20
         4178.963378906
 30
          969.442932129
 70
    32
  0
VERTEX
  8
MESH
 62
      2
 10
         3417.335937500
 20
         4214.993164062
 30
          971.670288086
 70
    32
  0
VERTEX
  8
MESH
 62
      2
 10
         3385.867187500
 20
         4250.979492188
 30
          973.683227539
 70
    32
  0
VERTEX
  8
MESH
 62
      2
 10
         3352.386718750
 20
         4289.376464844
 30
          974.998657227
 70
    32
  0
VERTEX
  8
MESH
 62
      2
 10
         3317.195312500
 20
         4329.657226562
 30
          976.916809082
 70
    32
  0
VERTEX
  8
MESH
 62
      2
 10
         3285.171875000
 20
         4366.514160156
 30
          977.060607910
 70
    32
  0
VERTEX
  8
MESH
 62
      2
 10
         3253.550781250
 20
         4403.618652344
 30
          971.384521484
 70
    32
  0
SEQEND
  0
ENDSEC
  0
EOF
