  0
SECTION
  2
ENTITIES
  0
POLYLINE
  8
MESH
 62
     10
 66
     1
 10
0.0
 20
0.0
 30
0.0
 70
     8
  0
VERTEX
  8
MESH
 62
     10
 10
        97529.398000000
 20
        81690.113000000
 30
         -306.304000000
 70
    32
  0
VERTEX
  8
MESH
 62
     10
 10
        97531.915000000
 20
        81696.223000000
 30
         -306.447000000
 70
    32
  0
VERTEX
  8
MESH
 62
     10
 10
        97533.691000000
 20
        81701.729000000
 30
         -306.512000000
 70
    32
  0
VERTEX
  8
MESH
 62
     10
 10
        97535.598000000
 20
        81706.880000000
 30
         -306.534000000
 70
    32
  0
VERTEX
  8
MESH
 62
     10
 10
        97537.602000000
 20
        81712.566000000
 30
         -306.612000000
 70
    32
  0
VERTEX
  8
MESH
 62
     10
 10
        97539.075000000
 20
        81717.887000000
 30
         -306.713000000
 70
    32
  0
VERTEX
  8
MESH
 62
     10
 10
        97540.510000000
 20
        81722.772000000
 30
         -306.913000000
 70
    32
  0
VERTEX
  8
MESH
 62
     10
 10
        97541.922000000
 20
        81728.007000000
 30
         -306.862000000
 70
    32
  0
VERTEX
  8
MESH
 62
     10
 10
        97542.848000000
 20
        81733.630000000
 30
         -307.094000000
 70
    32
  0
VERTEX
  8
MESH
 62
     10
 10
        97542.479000000
 20
        81738.624000000
 30
         -307.266000000
 70
    32
  0
VERTEX
  8
MESH
 62
     10
 10
        97539.439000000
 20
        81743.850000000
 30
         -307.355000000
 70
    32
  0
VERTEX
  8
MESH
 62
     10
 10
        97535.142000000
 20
        81747.918000000
 30
         -307.340000000
 70
    32
  0
VERTEX
  8
MESH
 62
     10
 10
        97530.413000000
 20
        81750.583000000
 30
         -307.417000000
 70
    32
  0
VERTEX
  8
MESH
 62
     10
 10
        97525.638000000
 20
        81752.202000000
 30
         -307.314000000
 70
    32
  0
VERTEX
  8
MESH
 62
     10
 10
        97521.803000000
 20
        81748.981000000
 30
         -307.048000000
 70
    32
  0
VERTEX
  8
MESH
 62
     10
 10
        97519.447000000
 20
        81743.552000000
 30
         -306.888000000
 70
    32
  0
VERTEX
  8
MESH
 62
     10
 10
        97517.547000000
 20
        81736.145000000
 30
         -306.782000000
 70
    32
  0
VERTEX
  8
MESH
 62
     10
 10
        97515.384000000
 20
        81730.224000000
 30
         -306.722000000
 70
    32
  0
VERTEX
  8
MESH
 62
     10
 10
        97514.592000000
 20
        81723.378000000
 30
         -306.399000000
 70
    32
  0
VERTEX
  8
MESH
 62
     10
 10
        97513.800000000
 20
        81718.272000000
 30
         -306.308000000
 70
    32
  0
VERTEX
  8
MESH
 62
     10
 10
        97512.859000000
 20
        81713.267000000
 30
         -306.269000000
 70
    32
  0
VERTEX
  8
MESH
 62
     10
 10
        97511.087000000
 20
        81708.087000000
 30
         -306.029000000
 70
    32
  0
VERTEX
  8
MESH
 62
     10
 10
        97507.404000000
 20
        81702.577000000
 30
         -305.628000000
 70
    32
  0
VERTEX
  8
MESH
 62
     10
 10
        97503.909000000
 20
        81696.987000000
 30
         -305.412000000
 70
    32
  0
VERTEX
  8
MESH
 62
     10
 10
        97501.184000000
 20
        81692.245000000
 30
         -305.344000000
 70
    32
  0
VERTEX
  8
MESH
 62
     10
 10
        97497.817000000
 20
        81687.510000000
 30
         -305.369000000
 70
    32
  0
VERTEX
  8
MESH
 62
     10
 10
        97494.394000000
 20
        81682.825000000
 30
         -305.383000000
 70
    32
  0
VERTEX
  8
MESH
 62
     10
 10
        97491.535000000
 20
        81678.001000000
 30
         -305.358000000
 70
    32
  0
VERTEX
  8
MESH
 62
     10
 10
        97490.652000000
 20
        81675.983000000
 30
         -305.335000000
 70
    32
  0
VERTEX
  8
MESH
 62
     10
 10
        97495.378000000
 20
        81674.061000000
 30
         -305.244000000
 70
    32
  0
VERTEX
  8
MESH
 62
     10
 10
        97500.455000000
 20
        81673.630000000
 30
         -305.319000000
 70
    32
  0
VERTEX
  8
MESH
 62
     10
 10
        97506.516000000
 20
        81672.655000000
 30
         -305.165000000
 70
    32
  0
VERTEX
  8
MESH
 62
     10
 10
        97511.732000000
 20
        81672.403000000
 30
         -305.144000000
 70
    32
  0
VERTEX
  8
MESH
 62
     10
 10
        97517.281000000
 20
        81672.884000000
 30
         -305.297000000
 70
    32
  0
VERTEX
  8
MESH
 62
     10
 10
        97522.988000000
 20
        81674.344000000
 30
         -305.762000000
 70
    32
  0
VERTEX
  8
MESH
 62
     10
 10
        97523.349000000
 20
        81679.556000000
 30
         -305.902000000
 70
    32
  0
VERTEX
  8
MESH
 62
     10
 10
        97518.191000000
 20
        81680.128000000
 30
         -305.703000000
 70
    32
  0
VERTEX
  8
MESH
 62
     10
 10
        97512.142000000
 20
        81680.383000000
 30
         -305.837000000
 70
    32
  0
VERTEX
  8
MESH
 62
     10
 10
        97506.702000000
 20
        81681.507000000
 30
         -305.851000000
 70
    32
  0
VERTEX
  8
MESH
 62
     10
 10
        97501.260000000
 20
        81681.972000000
 30
         -305.740000000
 70
    32
  0
VERTEX
  8
MESH
 62
     10
 10
        97500.263000000
 20
        81681.933000000
 30
         -305.650000000
 70
    32
  0
VERTEX
  8
MESH
 62
     10
 10
        97500.090000000
 20
        81687.193000000
 30
         -305.708000000
 70
    32
  0
VERTEX
  8
MESH
 62
     10
 10
        97505.453000000
 20
        81686.669000000
 30
         -305.834000000
 70
    32
  0
VERTEX
  8
MESH
 62
     10
 10
        97510.737000000
 20
        81686.395000000
 30
         -305.676000000
 70
    32
  0
VERTEX
  8
MESH
 62
     10
 10
        97511.263000000
 20
        81691.435000000
 30
         -305.502000000
 70
    32
  0
VERTEX
  8
MESH
 62
     10
 10
        97513.774000000
 20
        81696.902000000
 30
         -305.516000000
 70
    32
  0
VERTEX
  8
MESH
 62
     10
 10
        97514.889000000
 20
        81700.922000000
 30
         -305.484000000
 70
    32
  0
VERTEX
  8
MESH
 62
     10
 10
        97519.580000000
 20
        81699.792000000
 30
         -305.471000000
 70
    32
  0
VERTEX
  8
MESH
 62
     10
 10
        97518.012000000
 20
        81694.044000000
 30
         -305.518000000
 70
    32
  0
VERTEX
  8
MESH
 62
     10
 10
        97516.757000000
 20
        81689.133000000
 30
         -305.503000000
 70
    32
  0
VERTEX
  8
MESH
 62
     10
 10
        97520.489000000
 20
        81685.536000000
 30
         -305.902000000
 70
    32
  0
VERTEX
  8
MESH
 62
     10
 10
        97524.923000000
 20
        81686.755000000
 30
         -306.151000000
 70
    32
  0
VERTEX
  8
MESH
 62
     10
 10
        97529.398000000
 20
        81690.113000000
 30
         -306.304000000
 70
    32
  0
SEQEND
  0
POLYLINE
  8
MESH
 62
     10
 66
     1
 10
0.0
 20
0.0
 30
0.0
 70
     8
  0
VERTEX
  8
MESH
 62
     10
 10
        97486.914000000
 20
        81669.864000000
 30
         -305.212000000
 70
    32
  0
VERTEX
  8
MESH
 62
     10
 10
        97482.692000000
 20
        81665.935000000
 30
         -305.063000000
 70
    32
  0
VERTEX
  8
MESH
 62
     10
 10
        97478.217000000
 20
        81662.005000000
 30
         -304.913000000
 70
    32
  0
VERTEX
  8
MESH
 62
     10
 10
        97473.184000000
 20
        81657.889000000
 30
         -304.781000000
 70
    32
  0
VERTEX
  8
MESH
 62
     10
 10
        97468.567000000
 20
        81654.676000000
 30
         -304.654000000
 70
    32
  0
VERTEX
  8
MESH
 62
     10
 10
        97465.895000000
 20
        81652.256000000
 30
         -304.487000000
 70
    32
  0
VERTEX
  8
MESH
 62
     10
 10
        97470.827000000
 20
        81650.095000000
 30
         -304.533000000
 70
    32
  0
VERTEX
  8
MESH
 62
     10
 10
        97475.792000000
 20
        81649.089000000
 30
         -304.548000000
 70
    32
  0
VERTEX
  8
MESH
 62
     10
 10
        97481.866000000
 20
        81648.305000000
 30
         -304.607000000
 70
    32
  0
VERTEX
  8
MESH
 62
     10
 10
        97487.558000000
 20
        81647.951000000
 30
         -304.690000000
 70
    32
  0
VERTEX
  8
MESH
 62
     10
 10
        97492.573000000
 20
        81647.583000000
 30
         -304.760000000
 70
    32
  0
VERTEX
  8
MESH
 62
     10
 10
        97498.049000000
 20
        81646.479000000
 30
         -304.854000000
 70
    32
  0
VERTEX
  8
MESH
 62
     10
 10
        97503.768000000
 20
        81647.341000000
 30
         -304.925000000
 70
    32
  0
VERTEX
  8
MESH
 62
     10
 10
        97508.675000000
 20
        81649.857000000
 30
         -304.883000000
 70
    32
  0
VERTEX
  8
MESH
 62
     10
 10
        97507.677000000
 20
        81654.451000000
 30
         -305.013000000
 70
    32
  0
VERTEX
  8
MESH
 62
     10
 10
        97502.299000000
 20
        81654.691000000
 30
         -305.074000000
 70
    32
  0
VERTEX
  8
MESH
 62
     10
 10
        97496.580000000
 20
        81655.272000000
 30
         -305.038000000
 70
    32
  0
VERTEX
  8
MESH
 62
     10
 10
        97491.519000000
 20
        81655.806000000
 30
         -304.888000000
 70
    32
  0
VERTEX
  8
MESH
 62
     10
 10
        97485.613000000
 20
        81656.568000000
 30
         -304.635000000
 70
    32
  0
VERTEX
  8
MESH
 62
     10
 10
        97480.538000000
 20
        81657.702000000
 30
         -304.484000000
 70
    32
  0
VERTEX
  8
MESH
 62
     10
 10
        97481.135000000
 20
        81662.231000000
 30
         -304.480000000
 70
    32
  0
VERTEX
  8
MESH
 62
     10
 10
        97487.099000000
 20
        81661.459000000
 30
         -304.657000000
 70
    32
  0
VERTEX
  8
MESH
 62
     10
 10
        97492.562000000
 20
        81660.940000000
 30
         -304.907000000
 70
    32
  0
VERTEX
  8
MESH
 62
     10
 10
        97497.709000000
 20
        81660.184000000
 30
         -305.055000000
 70
    32
  0
VERTEX
  8
MESH
 62
     10
 10
        97503.398000000
 20
        81659.569000000
 30
         -305.063000000
 70
    32
  0
VERTEX
  8
MESH
 62
     10
 10
        97509.139000000
 20
        81660.099000000
 30
         -305.074000000
 70
    32
  0
VERTEX
  8
MESH
 62
     10
 10
        97514.082000000
 20
        81661.129000000
 30
         -305.084000000
 70
    32
  0
VERTEX
  8
MESH
 62
     10
 10
        97517.715000000
 20
        81666.024000000
 30
         -305.181000000
 70
    32
  0
VERTEX
  8
MESH
 62
     10
 10
        97511.999000000
 20
        81666.514000000
 30
         -305.113000000
 70
    32
  0
VERTEX
  8
MESH
 62
     10
 10
        97506.881000000
 20
        81667.365000000
 30
         -305.164000000
 70
    32
  0
VERTEX
  8
MESH
 62
     10
 10
        97501.018000000
 20
        81668.279000000
 30
         -305.321000000
 70
    32
  0
VERTEX
  8
MESH
 62
     10
 10
        97495.020000000
 20
        81668.659000000
 30
         -305.233000000
 70
    32
  0
VERTEX
  8
MESH
 62
     10
 10
        97489.644000000
 20
        81669.606000000
 30
         -305.336000000
 70
    32
  0
VERTEX
  8
MESH
 62
     10
 10
        97486.914000000
 20
        81669.864000000
 30
         -305.212000000
 70
    32
  0
SEQEND
  0
POLYLINE
  8
MESH
 62
     10
 66
     1
 10
0.0
 20
0.0
 30
0.0
 70
     8
  0
VERTEX
  8
MESH
 62
     10
 10
        97456.813000000
 20
        81624.921000000
 30
         -303.942000000
 70
    32
  0
VERTEX
  8
MESH
 62
     10
 10
        97462.701000000
 20
        81624.028000000
 30
         -304.012000000
 70
    32
  0
VERTEX
  8
MESH
 62
     10
 10
        97467.853000000
 20
        81623.333000000
 30
         -304.044000000
 70
    32
  0
VERTEX
  8
MESH
 62
     10
 10
        97472.981000000
 20
        81622.644000000
 30
         -304.115000000
 70
    32
  0
VERTEX
  8
MESH
 62
     10
 10
        97478.344000000
 20
        81621.912000000
 30
         -304.226000000
 70
    32
  0
VERTEX
  8
MESH
 62
     10
 10
        97483.492000000
 20
        81621.451000000
 30
         -304.325000000
 70
    32
  0
VERTEX
  8
MESH
 62
     10
 10
        97489.425000000
 20
        81621.073000000
 30
         -304.665000000
 70
    32
  0
VERTEX
  8
MESH
 62
     10
 10
        97495.154000000
 20
        81622.452000000
 30
         -304.636000000
 70
    32
  0
VERTEX
  8
MESH
 62
     10
 10
        97498.754000000
 20
        81627.002000000
 30
         -304.608000000
 70
    32
  0
VERTEX
  8
MESH
 62
     10
 10
        97498.060000000
 20
        81629.508000000
 30
         -304.672000000
 70
    32
  0
VERTEX
  8
MESH
 62
     10
 10
        97492.871000000
 20
        81629.008000000
 30
         -304.655000000
 70
    32
  0
VERTEX
  8
MESH
 62
     10
 10
        97487.241000000
 20
        81629.509000000
 30
         -304.410000000
 70
    32
  0
VERTEX
  8
MESH
 62
     10
 10
        97482.131000000
 20
        81629.967000000
 30
         -304.285000000
 70
    32
  0
VERTEX
  8
MESH
 62
     10
 10
        97476.993000000
 20
        81630.388000000
 30
         -304.207000000
 70
    32
  0
VERTEX
  8
MESH
 62
     10
 10
        97471.592000000
 20
        81631.570000000
 30
         -304.251000000
 70
    32
  0
VERTEX
  8
MESH
 62
     10
 10
        97465.627000000
 20
        81632.409000000
 30
         -304.246000000
 70
    32
  0
VERTEX
  8
MESH
 62
     10
 10
        97460.426000000
 20
        81632.907000000
 30
         -304.242000000
 70
    32
  0
VERTEX
  8
MESH
 62
     10
 10
        97456.676000000
 20
        81635.155000000
 30
         -304.165000000
 70
    32
  0
VERTEX
  8
MESH
 62
     10
 10
        97458.043000000
 20
        81638.473000000
 30
         -304.180000000
 70
    32
  0
VERTEX
  8
MESH
 62
     10
 10
        97463.518000000
 20
        81637.621000000
 30
         -304.244000000
 70
    32
  0
VERTEX
  8
MESH
 62
     10
 10
        97468.668000000
 20
        81636.910000000
 30
         -304.248000000
 70
    32
  0
VERTEX
  8
MESH
 62
     10
 10
        97475.080000000
 20
        81635.773000000
 30
         -304.215000000
 70
    32
  0
VERTEX
  8
MESH
 62
     10
 10
        97480.925000000
 20
        81635.167000000
 30
         -304.240000000
 70
    32
  0
VERTEX
  8
MESH
 62
     10
 10
        97486.853000000
 20
        81634.753000000
 30
         -304.396000000
 70
    32
  0
VERTEX
  8
MESH
 62
     10
 10
        97491.971000000
 20
        81634.623000000
 30
         -304.627000000
 70
    32
  0
VERTEX
  8
MESH
 62
     10
 10
        97497.441000000
 20
        81634.927000000
 30
         -304.834000000
 70
    32
  0
VERTEX
  8
MESH
 62
     10
 10
        97503.134000000
 20
        81636.964000000
 30
         -304.672000000
 70
    32
  0
VERTEX
  8
MESH
 62
     10
 10
        97502.496000000
 20
        81641.580000000
 30
         -304.782000000
 70
    32
  0
VERTEX
  8
MESH
 62
     10
 10
        97496.735000000
 20
        81641.573000000
 30
         -304.833000000
 70
    32
  0
VERTEX
  8
MESH
 62
     10
 10
        97490.771000000
 20
        81642.160000000
 30
         -304.746000000
 70
    32
  0
VERTEX
  8
MESH
 62
     10
 10
        97484.826000000
 20
        81643.081000000
 30
         -304.656000000
 70
    32
  0
VERTEX
  8
MESH
 62
     10
 10
        97478.880000000
 20
        81643.485000000
 30
         -304.571000000
 70
    32
  0
VERTEX
  8
MESH
 62
     10
 10
        97473.012000000
 20
        81644.261000000
 30
         -304.538000000
 70
    32
  0
VERTEX
  8
MESH
 62
     10
 10
        97467.046000000
 20
        81645.720000000
 30
         -304.518000000
 70
    32
  0
VERTEX
  8
MESH
 62
     10
 10
        97461.556000000
 20
        81646.601000000
 30
         -304.469000000
 70
    32
  0
VERTEX
  8
MESH
 62
     10
 10
        97457.169000000
 20
        81642.548000000
 30
         -304.398000000
 70
    32
  0
VERTEX
  8
MESH
 62
     10
 10
        97454.307000000
 20
        81636.992000000
 30
         -304.389000000
 70
    32
  0
VERTEX
  8
MESH
 62
     10
 10
        97451.733000000
 20
        81632.256000000
 30
         -304.345000000
 70
    32
  0
VERTEX
  8
MESH
 62
     10
 10
        97451.045000000
 20
        81626.537000000
 30
         -304.025000000
 70
    32
  0
VERTEX
  8
MESH
 62
     10
 10
        97456.813000000
 20
        81624.921000000
 30
         -303.942000000
 70
    32
  0
SEQEND
  0
POLYLINE
  8
MESH
 62
     10
 66
     1
 10
0.0
 20
0.0
 30
0.0
 70
     8
  0
VERTEX
  8
MESH
 62
     10
 10
        97412.110000000
 20
        81809.138000000
 30
         -299.474000000
 70
    32
  0
SEQEND
  0
POLYLINE
  8
MESH
 62
     10
 66
     1
 10
0.0
 20
0.0
 30
0.0
 70
     8
  0
VERTEX
  8
MESH
 62
     10
 10
        97429.363000000
 20
        81817.074000000
 30
         -275.512000000
 70
    32
  0
SEQEND
  0
POLYLINE
  8
MESH
 62
     10
 66
     1
 10
0.0
 20
0.0
 30
0.0
 70
     8
  0
VERTEX
  8
MESH
 62
     10
 10
        97412.507000000
 20
        81808.578000000
 30
         -299.722000000
 70
    32
  0
SEQEND
  0
POLYLINE
  8
MESH
 62
     10
 66
     1
 10
0.0
 20
0.0
 30
0.0
 70
     8
  0
VERTEX
  8
MESH
 62
     10
 10
        97429.468000000
 20
        81816.459000000
 30
         -275.476000000
 70
    32
  0
SEQEND
  0
POLYLINE
  8
MESH
 62
     10
 66
     1
 10
0.0
 20
0.0
 30
0.0
 70
     8
  0
VERTEX
  8
MESH
 62
     10
 10
        97595.363000000
 20
        81764.025000000
 30
         -305.383000000
 70
    32
  0
VERTEX
  8
MESH
 62
     10
 10
        97596.398000000
 20
        81768.066000000
 30
         -305.510000000
 70
    32
  0
VERTEX
  8
MESH
 62
     10
 10
        97598.111000000
 20
        81773.903000000
 30
         -305.819000000
 70
    32
  0
VERTEX
  8
MESH
 62
     10
 10
        97599.911000000
 20
        81779.900000000
 30
         -306.710000000
 70
    32
  0
VERTEX
  8
MESH
 62
     10
 10
        97601.962000000
 20
        81785.445000000
 30
         -307.713000000
 70
    32
  0
VERTEX
  8
MESH
 62
     10
 10
        97603.622000000
 20
        81792.127000000
 30
         -308.666000000
 70
    32
  0
VERTEX
  8
MESH
 62
     10
 10
        97605.032000000
 20
        81797.936000000
 30
         -308.555000000
 70
    32
  0
VERTEX
  8
MESH
 62
     10
 10
        97606.089000000
 20
        81804.184000000
 30
         -308.328000000
 70
    32
  0
VERTEX
  8
MESH
 62
     10
 10
        97606.116000000
 20
        81810.887000000
 30
         -308.298000000
 70
    32
  0
VERTEX
  8
MESH
 62
     10
 10
        97606.840000000
 20
        81816.022000000
 30
         -308.440000000
 70
    32
  0
VERTEX
  8
MESH
 62
     10
 10
        97607.906000000
 20
        81822.096000000
 30
         -308.398000000
 70
    32
  0
VERTEX
  8
MESH
 62
     10
 10
        97609.095000000
 20
        81827.138000000
 30
         -308.238000000
 70
    32
  0
VERTEX
  8
MESH
 62
     10
 10
        97611.192000000
 20
        81833.227000000
 30
         -308.116000000
 70
    32
  0
VERTEX
  8
MESH
 62
     10
 10
        97613.366000000
 20
        81838.984000000
 30
         -308.003000000
 70
    32
  0
VERTEX
  8
MESH
 62
     10
 10
        97615.735000000
 20
        81844.109000000
 30
         -307.964000000
 70
    32
  0
VERTEX
  8
MESH
 62
     10
 10
        97618.535000000
 20
        81849.247000000
 30
         -307.972000000
 70
    32
  0
VERTEX
  8
MESH
 62
     10
 10
        97620.930000000
 20
        81853.840000000
 30
         -308.052000000
 70
    32
  0
VERTEX
  8
MESH
 62
     10
 10
        97623.858000000
 20
        81858.707000000
 30
         -308.121000000
 70
    32
  0
VERTEX
  8
MESH
 62
     10
 10
        97626.607000000
 20
        81863.775000000
 30
         -308.456000000
 70
    32
  0
VERTEX
  8
MESH
 62
     10
 10
        97628.786000000
 20
        81868.570000000
 30
         -308.169000000
 70
    32
  0
VERTEX
  8
MESH
 62
     10
 10
        97630.903000000
 20
        81873.127000000
 30
         -306.484000000
 70
    32
  0
VERTEX
  8
MESH
 62
     10
 10
        97631.744000000
 20
        81875.464000000
 30
         -304.592000000
 70
    32
  0
VERTEX
  8
MESH
 62
     10
 10
        97636.953000000
 20
        81875.320000000
 30
         -303.113000000
 70
    32
  0
VERTEX
  8
MESH
 62
     10
 10
        97637.134000000
 20
        81874.846000000
 30
         -303.318000000
 70
    32
  0
VERTEX
  8
MESH
 62
     10
 10
        97634.468000000
 20
        81870.938000000
 30
         -306.642000000
 70
    32
  0
VERTEX
  8
MESH
 62
     10
 10
        97632.415000000
 20
        81866.288000000
 30
         -308.235000000
 70
    32
  0
VERTEX
  8
MESH
 62
     10
 10
        97630.329000000
 20
        81861.727000000
 30
         -308.450000000
 70
    32
  0
VERTEX
  8
MESH
 62
     10
 10
        97627.358000000
 20
        81856.417000000
 30
         -308.108000000
 70
    32
  0
VERTEX
  8
MESH
 62
     10
 10
        97624.768000000
 20
        81852.117000000
 30
         -308.050000000
 70
    32
  0
VERTEX
  8
MESH
 62
     10
 10
        97621.598000000
 20
        81847.102000000
 30
         -307.974000000
 70
    32
  0
VERTEX
  8
MESH
 62
     10
 10
        97618.617000000
 20
        81842.091000000
 30
         -307.969000000
 70
    32
  0
VERTEX
  8
MESH
 62
     10
 10
        97616.632000000
 20
        81836.955000000
 30
         -308.013000000
 70
    32
  0
VERTEX
  8
MESH
 62
     10
 10
        97614.384000000
 20
        81831.048000000
 30
         -308.135000000
 70
    32
  0
VERTEX
  8
MESH
 62
     10
 10
        97612.921000000
 20
        81826.217000000
 30
         -308.237000000
 70
    32
  0
VERTEX
  8
MESH
 62
     10
 10
        97611.951000000
 20
        81820.571000000
 30
         -308.424000000
 70
    32
  0
VERTEX
  8
MESH
 62
     10
 10
        97611.236000000
 20
        81814.910000000
 30
         -308.431000000
 70
    32
  0
VERTEX
  8
MESH
 62
     10
 10
        97610.752000000
 20
        81808.801000000
 30
         -308.286000000
 70
    32
  0
VERTEX
  8
MESH
 62
     10
 10
        97609.964000000
 20
        81802.718000000
 30
         -308.355000000
 70
    32
  0
VERTEX
  8
MESH
 62
     10
 10
        97609.287000000
 20
        81797.710000000
 30
         -308.539000000
 70
    32
  0
VERTEX
  8
MESH
 62
     10
 10
        97608.190000000
 20
        81792.377000000
 30
         -308.694000000
 70
    32
  0
VERTEX
  8
MESH
 62
     10
 10
        97606.408000000
 20
        81786.045000000
 30
         -308.062000000
 70
    32
  0
VERTEX
  8
MESH
 62
     10
 10
        97604.862000000
 20
        81780.937000000
 30
         -307.085000000
 70
    32
  0
VERTEX
  8
MESH
 62
     10
 10
        97603.066000000
 20
        81775.440000000
 30
         -306.186000000
 70
    32
  0
VERTEX
  8
MESH
 62
     10
 10
        97601.341000000
 20
        81770.007000000
 30
         -305.581000000
 70
    32
  0
VERTEX
  8
MESH
 62
     10
 10
        97601.116000000
 20
        81768.737000000
 30
         -305.535000000
 70
    32
  0
VERTEX
  8
MESH
 62
     10
 10
        97600.795000000
 20
        81766.994000000
 30
         -305.510000000
 70
    32
  0
VERTEX
  8
MESH
 62
     10
 10
        97600.101000000
 20
        81764.005000000
 30
         -305.410000000
 70
    32
  0
VERTEX
  8
MESH
 62
     10
 10
        97595.363000000
 20
        81764.025000000
 30
         -305.383000000
 70
    32
  0
SEQEND
  0
POLYLINE
  8
MESH
 62
     10
 66
     1
 10
0.0
 20
0.0
 30
0.0
 70
     8
  0
VERTEX
  8
MESH
 62
     10
 10
        97391.478000000
 20
        81740.748000000
 30
         -312.218000000
 70
    32
  0
SEQEND
  0
POLYLINE
  8
MESH
 62
     10
 66
     1
 10
0.0
 20
0.0
 30
0.0
 70
     8
  0
VERTEX
  8
MESH
 62
     10
 10
        97380.989000000
 20
        81758.654000000
 30
         -286.431000000
 70
    32
  0
SEQEND
  0
POLYLINE
  8
MESH
 62
     10
 66
     1
 10
0.0
 20
0.0
 30
0.0
 70
     8
  0
VERTEX
  8
MESH
 62
     10
 10
        97359.182000000
 20
        81825.008000000
 30
         -295.295000000
 70
    32
  0
VERTEX
  8
MESH
 62
     10
 10
        97364.817000000
 20
        81824.106000000
 30
         -295.322000000
 70
    32
  0
VERTEX
  8
MESH
 62
     10
 10
        97367.323000000
 20
        81828.793000000
 30
         -295.979000000
 70
    32
  0
VERTEX
  8
MESH
 62
     10
 10
        97370.488000000
 20
        81833.322000000
 30
         -297.088000000
 70
    32
  0
VERTEX
  8
MESH
 62
     10
 10
        97375.982000000
 20
        81836.173000000
 30
         -298.397000000
 70
    32
  0
VERTEX
  8
MESH
 62
     10
 10
        97381.816000000
 20
        81837.603000000
 30
         -299.528000000
 70
    32
  0
VERTEX
  8
MESH
 62
     10
 10
        97386.915000000
 20
        81836.287000000
 30
         -300.286000000
 70
    32
  0
VERTEX
  8
MESH
 62
     10
 10
        97392.287000000
 20
        81833.582000000
 30
         -301.395000000
 70
    32
  0
VERTEX
  8
MESH
 62
     10
 10
        97395.724000000
 20
        81829.939000000
 30
         -302.230000000
 70
    32
  0
VERTEX
  8
MESH
 62
     10
 10
        97398.990000000
 20
        81824.765000000
 30
         -302.788000000
 70
    32
  0
VERTEX
  8
MESH
 62
     10
 10
        97400.958000000
 20
        81820.137000000
 30
         -303.140000000
 70
    32
  0
VERTEX
  8
MESH
 62
     10
 10
        97403.685000000
 20
        81815.778000000
 30
         -303.593000000
 70
    32
  0
VERTEX
  8
MESH
 62
     10
 10
        97406.635000000
 20
        81811.350000000
 30
         -304.455000000
 70
    32
  0
VERTEX
  8
MESH
 62
     10
 10
        97408.439000000
 20
        81806.767000000
 30
         -305.324000000
 70
    32
  0
VERTEX
  8
MESH
 62
     10
 10
        97410.967000000
 20
        81801.999000000
 30
         -306.193000000
 70
    32
  0
VERTEX
  8
MESH
 62
     10
 10
        97413.120000000
 20
        81797.201000000
 30
         -307.162000000
 70
    32
  0
VERTEX
  8
MESH
 62
     10
 10
        97415.404000000
 20
        81792.126000000
 30
         -308.110000000
 70
    32
  0
VERTEX
  8
MESH
 62
     10
 10
        97416.123000000
 20
        81786.993000000
 30
         -308.679000000
 70
    32
  0
VERTEX
  8
MESH
 62
     10
 10
        97416.462000000
 20
        81781.998000000
 30
         -309.202000000
 70
    32
  0
VERTEX
  8
MESH
 62
     10
 10
        97416.779000000
 20
        81776.645000000
 30
         -309.896000000
 70
    32
  0
VERTEX
  8
MESH
 62
     10
 10
        97417.204000000
 20
        81770.731000000
 30
         -310.749000000
 70
    32
  0
VERTEX
  8
MESH
 62
     10
 10
        97417.136000000
 20
        81765.075000000
 30
         -311.496000000
 70
    32
  0
VERTEX
  8
MESH
 62
     10
 10
        97415.773000000
 20
        81759.969000000
 30
         -312.419000000
 70
    32
  0
VERTEX
  8
MESH
 62
     10
 10
        97412.828000000
 20
        81755.556000000
 30
         -313.363000000
 70
    32
  0
VERTEX
  8
MESH
 62
     10
 10
        97409.159000000
 20
        81751.962000000
 30
         -314.718000000
 70
    32
  0
VERTEX
  8
MESH
 62
     10
 10
        97404.443000000
 20
        81749.549000000
 30
         -315.865000000
 70
    32
  0
VERTEX
  8
MESH
 62
     10
 10
        97399.635000000
 20
        81748.385000000
 30
         -316.802000000
 70
    32
  0
VERTEX
  8
MESH
 62
     10
 10
        97394.629000000
 20
        81748.990000000
 30
         -317.671000000
 70
    32
  0
VERTEX
  8
MESH
 62
     10
 10
        97388.872000000
 20
        81750.306000000
 30
         -318.416000000
 70
    32
  0
VERTEX
  8
MESH
 62
     10
 10
        97384.443000000
 20
        81753.718000000
 30
         -319.150000000
 70
    32
  0
VERTEX
  8
MESH
 62
     10
 10
        97380.673000000
 20
        81760.121000000
 30
         -320.459000000
 70
    32
  0
VERTEX
  8
MESH
 62
     10
 10
        97378.106000000
 20
        81764.471000000
 30
         -321.296000000
 70
    32
  0
VERTEX
  8
MESH
 62
     10
 10
        97376.811000000
 20
        81769.578000000
 30
         -322.134000000
 70
    32
  0
VERTEX
  8
MESH
 62
     10
 10
        97375.470000000
 20
        81774.577000000
 30
         -323.011000000
 70
    32
  0
VERTEX
  8
MESH
 62
     10
 10
        97373.836000000
 20
        81779.966000000
 30
         -324.115000000
 70
    32
  0
VERTEX
  8
MESH
 62
     10
 10
        97374.650000000
 20
        81785.507000000
 30
         -324.831000000
 70
    32
  0
VERTEX
  8
MESH
 62
     10
 10
        97374.738000000
 20
        81787.160000000
 30
         -324.845000000
 70
    32
  0
VERTEX
  8
MESH
 62
     10
 10
        97369.802000000
 20
        81788.810000000
 30
         -324.895000000
 70
    32
  0
VERTEX
  8
MESH
 62
     10
 10
        97368.757000000
 20
        81783.336000000
 30
         -324.555000000
 70
    32
  0
VERTEX
  8
MESH
 62
     10
 10
        97368.595000000
 20
        81777.525000000
 30
         -323.806000000
 70
    32
  0
VERTEX
  8
MESH
 62
     10
 10
        97370.308000000
 20
        81772.705000000
 30
         -322.934000000
 70
    32
  0
VERTEX
  8
MESH
 62
     10
 10
        97372.199000000
 20
        81767.656000000
 30
         -322.006000000
 70
    32
  0
VERTEX
  8
MESH
 62
     10
 10
        97373.427000000
 20
        81762.728000000
 30
         -321.276000000
 70
    32
  0
VERTEX
  8
MESH
 62
     10
 10
        97375.770000000
 20
        81756.969000000
 30
         -320.247000000
 70
    32
  0
VERTEX
  8
MESH
 62
     10
 10
        97376.717000000
 20
        81750.857000000
 30
         -319.187000000
 70
    32
  0
VERTEX
  8
MESH
 62
     10
 10
        97373.462000000
 20
        81745.591000000
 30
         -319.228000000
 70
    32
  0
VERTEX
  8
MESH
 62
     10
 10
        97369.915000000
 20
        81741.472000000
 30
         -319.100000000
 70
    32
  0
VERTEX
  8
MESH
 62
     10
 10
        97366.711000000
 20
        81737.190000000
 30
         -318.657000000
 70
    32
  0
VERTEX
  8
MESH
 62
     10
 10
        97363.689000000
 20
        81731.852000000
 30
         -318.535000000
 70
    32
  0
VERTEX
  8
MESH
 62
     10
 10
        97361.810000000
 20
        81726.984000000
 30
         -318.629000000
 70
    32
  0
VERTEX
  8
MESH
 62
     10
 10
        97365.430000000
 20
        81725.307000000
 30
         -318.629000000
 70
    32
  0
VERTEX
  8
MESH
 62
     10
 10
        97368.248000000
 20
        81730.110000000
 30
         -318.528000000
 70
    32
  0
VERTEX
  8
MESH
 62
     10
 10
        97370.018000000
 20
        81733.293000000
 30
         -318.809000000
 70
    32
  0
VERTEX
  8
MESH
 62
     10
 10
        97375.667000000
 20
        81731.711000000
 30
         -318.672000000
 70
    32
  0
VERTEX
  8
MESH
 62
     10
 10
        97380.628000000
 20
        81730.193000000
 30
         -318.522000000
 70
    32
  0
VERTEX
  8
MESH
 62
     10
 10
        97382.257000000
 20
        81733.251000000
 30
         -318.524000000
 70
    32
  0
VERTEX
  8
MESH
 62
     10
 10
        97377.320000000
 20
        81737.987000000
 30
         -318.846000000
 70
    32
  0
VERTEX
  8
MESH
 62
     10
 10
        97378.678000000
 20
        81743.415000000
 30
         -319.268000000
 70
    32
  0
VERTEX
  8
MESH
 62
     10
 10
        97382.696000000
 20
        81746.907000000
 30
         -318.762000000
 70
    32
  0
VERTEX
  8
MESH
 62
     10
 10
        97388.713000000
 20
        81745.047000000
 30
         -318.213000000
 70
    32
  0
VERTEX
  8
MESH
 62
     10
 10
        97390.739000000
 20
        81740.538000000
 30
         -317.388000000
 70
    32
  0
VERTEX
  8
MESH
 62
     10
 10
        97390.882000000
 20
        81735.364000000
 30
         -317.091000000
 70
    32
  0
VERTEX
  8
MESH
 62
     10
 10
        97390.029000000
 20
        81728.819000000
 30
         -316.989000000
 70
    32
  0
VERTEX
  8
MESH
 62
     10
 10
        97389.831000000
 20
        81723.661000000
 30
         -316.578000000
 70
    32
  0
VERTEX
  8
MESH
 62
     10
 10
        97390.278000000
 20
        81718.868000000
 30
         -316.221000000
 70
    32
  0
VERTEX
  8
MESH
 62
     10
 10
        97394.534000000
 20
        81719.128000000
 30
         -316.214000000
 70
    32
  0
VERTEX
  8
MESH
 62
     10
 10
        97395.404000000
 20
        81724.289000000
 30
         -316.879000000
 70
    32
  0
VERTEX
  8
MESH
 62
     10
 10
        97395.763000000
 20
        81730.647000000
 30
         -317.033000000
 70
    32
  0
VERTEX
  8
MESH
 62
     10
 10
        97396.215000000
 20
        81736.308000000
 30
         -317.141000000
 70
    32
  0
VERTEX
  8
MESH
 62
     10
 10
        97398.461000000
 20
        81741.125000000
 30
         -317.208000000
 70
    32
  0
VERTEX
  8
MESH
 62
     10
 10
        97403.359000000
 20
        81743.354000000
 30
         -316.323000000
 70
    32
  0
VERTEX
  8
MESH
 62
     10
 10
        97408.413000000
 20
        81744.807000000
 30
         -315.504000000
 70
    32
  0
VERTEX
  8
MESH
 62
     10
 10
        97413.392000000
 20
        81748.259000000
 30
         -314.465000000
 70
    32
  0
VERTEX
  8
MESH
 62
     10
 10
        97417.090000000
 20
        81751.851000000
 30
         -313.400000000
 70
    32
  0
VERTEX
  8
MESH
 62
     10
 10
        97420.272000000
 20
        81756.277000000
 30
         -312.590000000
 70
    32
  0
VERTEX
  8
MESH
 62
     10
 10
        97422.651000000
 20
        81761.716000000
 30
         -311.825000000
 70
    32
  0
VERTEX
  8
MESH
 62
     10
 10
        97422.670000000
 20
        81766.894000000
 30
         -311.238000000
 70
    32
  0
VERTEX
  8
MESH
 62
     10
 10
        97423.135000000
 20
        81769.951000000
 30
         -310.894000000
 70
    32
  0
VERTEX
  8
MESH
 62
     10
 10
        97422.884000000
 20
        81775.482000000
 30
         -310.069000000
 70
    32
  0
VERTEX
  8
MESH
 62
     10
 10
        97428.104000000
 20
        81777.405000000
 30
         -309.585000000
 70
    32
  0
VERTEX
  8
MESH
 62
     10
 10
        97432.135000000
 20
        81775.576000000
 30
         -310.244000000
 70
    32
  0
VERTEX
  8
MESH
 62
     10
 10
        97433.298000000
 20
        81770.306000000
 30
         -311.027000000
 70
    32
  0
VERTEX
  8
MESH
 62
     10
 10
        97434.732000000
 20
        81767.004000000
 30
         -311.525000000
 70
    32
  0
VERTEX
  8
MESH
 62
     10
 10
        97438.971000000
 20
        81768.024000000
 30
         -311.481000000
 70
    32
  0
VERTEX
  8
MESH
 62
     10
 10
        97438.264000000
 20
        81773.437000000
 30
         -310.703000000
 70
    32
  0
VERTEX
  8
MESH
 62
     10
 10
        97438.919000000
 20
        81779.060000000
 30
         -309.998000000
 70
    32
  0
VERTEX
  8
MESH
 62
     10
 10
        97444.458000000
 20
        81779.628000000
 30
         -309.730000000
 70
    32
  0
VERTEX
  8
MESH
 62
     10
 10
        97449.729000000
 20
        81780.211000000
 30
         -309.549000000
 70
    32
  0
VERTEX
  8
MESH
 62
     10
 10
        97455.266000000
 20
        81780.595000000
 30
         -309.393000000
 70
    32
  0
VERTEX
  8
MESH
 62
     10
 10
        97461.110000000
 20
        81780.925000000
 30
         -309.163000000
 70
    32
  0
VERTEX
  8
MESH
 62
     10
 10
        97466.658000000
 20
        81781.385000000
 30
         -308.910000000
 70
    32
  0
VERTEX
  8
MESH
 62
     10
 10
        97471.694000000
 20
        81781.232000000
 30
         -308.611000000
 70
    32
  0
VERTEX
  8
MESH
 62
     10
 10
        97477.109000000
 20
        81779.262000000
 30
         -308.321000000
 70
    32
  0
VERTEX
  8
MESH
 62
     10
 10
        97481.742000000
 20
        81776.221000000
 30
         -308.176000000
 70
    32
  0
VERTEX
  8
MESH
 62
     10
 10
        97486.306000000
 20
        81773.564000000
 30
         -308.094000000
 70
    32
  0
VERTEX
  8
MESH
 62
     10
 10
        97490.932000000
 20
        81771.496000000
 30
         -307.913000000
 70
    32
  0
VERTEX
  8
MESH
 62
     10
 10
        97495.450000000
 20
        81768.923000000
 30
         -307.911000000
 70
    32
  0
VERTEX
  8
MESH
 62
     10
 10
        97500.833000000
 20
        81766.463000000
 30
         -307.570000000
 70
    32
  0
VERTEX
  8
MESH
 62
     10
 10
        97505.650000000
 20
        81763.813000000
 30
         -307.551000000
 70
    32
  0
VERTEX
  8
MESH
 62
     10
 10
        97512.189000000
 20
        81760.003000000
 30
         -307.659000000
 70
    32
  0
VERTEX
  8
MESH
 62
     10
 10
        97516.927000000
 20
        81757.304000000
 30
         -307.581000000
 70
    32
  0
VERTEX
  8
MESH
 62
     10
 10
        97517.929000000
 20
        81752.362000000
 30
         -307.181000000
 70
    32
  0
VERTEX
  8
MESH
 62
     10
 10
        97515.325000000
 20
        81746.163000000
 30
         -306.891000000
 70
    32
  0
VERTEX
  8
MESH
 62
     10
 10
        97511.879000000
 20
        81738.402000000
 30
         -306.780000000
 70
    32
  0
VERTEX
  8
MESH
 62
     10
 10
        97510.795000000
 20
        81733.496000000
 30
         -306.737000000
 70
    32
  0
VERTEX
  8
MESH
 62
     10
 10
        97509.779000000
 20
        81728.406000000
 30
         -306.629000000
 70
    32
  0
VERTEX
  8
MESH
 62
     10
 10
        97509.016000000
 20
        81723.368000000
 30
         -306.381000000
 70
    32
  0
VERTEX
  8
MESH
 62
     10
 10
        97508.196000000
 20
        81717.128000000
 30
         -306.407000000
 70
    32
  0
VERTEX
  8
MESH
 62
     10
 10
        97506.991000000
 20
        81712.169000000
 30
         -306.147000000
 70
    32
  0
VERTEX
  8
MESH
 62
     10
 10
        97503.949000000
 20
        81706.790000000
 30
         -305.717000000
 70
    32
  0
VERTEX
  8
MESH
 62
     10
 10
        97500.828000000
 20
        81702.236000000
 30
         -305.503000000
 70
    32
  0
VERTEX
  8
MESH
 62
     10
 10
        97497.810000000
 20
        81697.429000000
 30
         -305.362000000
 70
    32
  0
VERTEX
  8
MESH
 62
     10
 10
        97493.795000000
 20
        81691.744000000
 30
         -305.360000000
 70
    32
  0
VERTEX
  8
MESH
 62
     10
 10
        97490.829000000
 20
        81687.154000000
 30
         -305.384000000
 70
    32
  0
VERTEX
  8
MESH
 62
     10
 10
        97488.111000000
 20
        81682.514000000
 30
         -305.381000000
 70
    32
  0
VERTEX
  8
MESH
 62
     10
 10
        97485.484000000
 20
        81677.975000000
 30
         -305.333000000
 70
    32
  0
VERTEX
  8
MESH
 62
     10
 10
        97482.381000000
 20
        81673.102000000
 30
         -305.208000000
 70
    32
  0
VERTEX
  8
MESH
 62
     10
 10
        97477.845000000
 20
        81670.443000000
 30
         -305.045000000
 70
    32
  0
VERTEX
  8
MESH
 62
     10
 10
        97471.695000000
 20
        81671.295000000
 30
         -304.843000000
 70
    32
  0
VERTEX
  8
MESH
 62
     10
 10
        97467.623000000
 20
        81674.539000000
 30
         -304.655000000
 70
    32
  0
VERTEX
  8
MESH
 62
     10
 10
        97462.845000000
 20
        81677.124000000
 30
         -304.645000000
 70
    32
  0
VERTEX
  8
MESH
 62
     10
 10
        97461.888000000
 20
        81677.553000000
 30
         -304.646000000
 70
    32
  0
VERTEX
  8
MESH
 62
     10
 10
        97459.463000000
 20
        81673.007000000
 30
         -304.650000000
 70
    32
  0
VERTEX
  8
MESH
 62
     10
 10
        97464.221000000
 20
        81670.376000000
 30
         -304.652000000
 70
    32
  0
VERTEX
  8
MESH
 62
     10
 10
        97468.671000000
 20
        81667.730000000
 30
         -304.705000000
 70
    32
  0
VERTEX
  8
MESH
 62
     10
 10
        97470.730000000
 20
        81662.897000000
 30
         -304.799000000
 70
    32
  0
VERTEX
  8
MESH
 62
     10
 10
        97465.578000000
 20
        81659.316000000
 30
         -304.658000000
 70
    32
  0
VERTEX
  8
MESH
 62
     10
 10
        97460.335000000
 20
        81655.732000000
 30
         -304.563000000
 70
    32
  0
VERTEX
  8
MESH
 62
     10
 10
        97456.673000000
 20
        81651.647000000
 30
         -304.497000000
 70
    32
  0
VERTEX
  8
MESH
 62
     10
 10
        97453.752000000
 20
        81646.921000000
 30
         -304.396000000
 70
    32
  0
VERTEX
  8
MESH
 62
     10
 10
        97451.347000000
 20
        81642.480000000
 30
         -304.375000000
 70
    32
  0
VERTEX
  8
MESH
 62
     10
 10
        97448.631000000
 20
        81637.962000000
 30
         -304.396000000
 70
    32
  0
VERTEX
  8
MESH
 62
     10
 10
        97446.202000000
 20
        81633.526000000
 30
         -304.288000000
 70
    32
  0
VERTEX
  8
MESH
 62
     10
 10
        97444.073000000
 20
        81628.887000000
 30
         -304.017000000
 70
    32
  0
VERTEX
  8
MESH
 62
     10
 10
        97441.871000000
 20
        81623.686000000
 30
         -303.836000000
 70
    32
  0
VERTEX
  8
MESH
 62
     10
 10
        97439.145000000
 20
        81619.330000000
 30
         -303.822000000
 70
    32
  0
VERTEX
  8
MESH
 62
     10
 10
        97436.435000000
 20
        81614.700000000
 30
         -303.792000000
 70
    32
  0
VERTEX
  8
MESH
 62
     10
 10
        97436.108000000
 20
        81609.551000000
 30
         -303.599000000
 70
    32
  0
VERTEX
  8
MESH
 62
     10
 10
        97438.958000000
 20
        81608.230000000
 30
         -303.602000000
 70
    32
  0
VERTEX
  8
MESH
 62
     10
 10
        97441.457000000
 20
        81612.713000000
 30
         -303.803000000
 70
    32
  0
VERTEX
  8
MESH
 62
     10
 10
        97444.712000000
 20
        81618.082000000
 30
         -303.873000000
 70
    32
  0
VERTEX
  8
MESH
 62
     10
 10
        97449.368000000
 20
        81620.379000000
 30
         -303.952000000
 70
    32
  0
VERTEX
  8
MESH
 62
     10
 10
        97454.535000000
 20
        81620.027000000
 30
         -303.924000000
 70
    32
  0
VERTEX
  8
MESH
 62
     10
 10
        97452.790000000
 20
        81613.830000000
 30
         -304.018000000
 70
    32
  0
VERTEX
  8
MESH
 62
     10
 10
        97451.058000000
 20
        81608.564000000
 30
         -303.679000000
 70
    32
  0
VERTEX
  8
MESH
 62
     10
 10
        97449.386000000
 20
        81604.389000000
 30
         -303.592000000
 70
    32
  0
VERTEX
  8
MESH
 62
     10
 10
        97454.132000000
 20
        81602.444000000
 30
         -303.595000000
 70
    32
  0
VERTEX
  8
MESH
 62
     10
 10
        97456.233000000
 20
        81607.848000000
 30
         -303.716000000
 70
    32
  0
VERTEX
  8
MESH
 62
     10
 10
        97458.439000000
 20
        81612.938000000
 30
         -303.988000000
 70
    32
  0
VERTEX
  8
MESH
 62
     10
 10
        97462.266000000
 20
        81617.309000000
 30
         -304.021000000
 70
    32
  0
VERTEX
  8
MESH
 62
     10
 10
        97467.850000000
 20
        81618.269000000
 30
         -304.053000000
 70
    32
  0
VERTEX
  8
MESH
 62
     10
 10
        97474.681000000
 20
        81616.914000000
 30
         -304.159000000
 70
    32
  0
VERTEX
  8
MESH
 62
     10
 10
        97479.760000000
 20
        81616.702000000
 30
         -304.264000000
 70
    32
  0
VERTEX
  8
MESH
 62
     10
 10
        97485.549000000
 20
        81616.157000000
 30
         -304.402000000
 70
    32
  0
VERTEX
  8
MESH
 62
     10
 10
        97491.332000000
 20
        81615.743000000
 30
         -304.660000000
 70
    32
  0
VERTEX
  8
MESH
 62
     10
 10
        97494.697000000
 20
        81613.331000000
 30
         -304.618000000
 70
    32
  0
VERTEX
  8
MESH
 62
     10
 10
        97493.111000000
 20
        81608.202000000
 30
         -304.579000000
 70
    32
  0
VERTEX
  8
MESH
 62
     10
 10
        97490.933000000
 20
        81603.653000000
 30
         -304.263000000
 70
    32
  0
VERTEX
  8
MESH
 62
     10
 10
        97487.209000000
 20
        81598.853000000
 30
         -304.095000000
 70
    32
  0
VERTEX
  8
MESH
 62
     10
 10
        97483.105000000
 20
        81594.084000000
 30
         -303.964000000
 70
    32
  0
VERTEX
  8
MESH
 62
     10
 10
        97479.737000000
 20
        81590.118000000
 30
         -303.782000000
 70
    32
  0
VERTEX
  8
MESH
 62
     10
 10
        97475.282000000
 20
        81586.677000000
 30
         -303.602000000
 70
    32
  0
VERTEX
  8
MESH
 62
     10
 10
        97470.053000000
 20
        81584.334000000
 30
         -303.561000000
 70
    32
  0
VERTEX
  8
MESH
 62
     10
 10
        97465.174000000
 20
        81582.541000000
 30
         -303.552000000
 70
    32
  0
VERTEX
  8
MESH
 62
     10
 10
        97460.616000000
 20
        81579.370000000
 30
         -303.480000000
 70
    32
  0
VERTEX
  8
MESH
 62
     10
 10
        97457.354000000
 20
        81575.220000000
 30
         -303.355000000
 70
    32
  0
VERTEX
  8
MESH
 62
     10
 10
        97456.877000000
 20
        81569.810000000
 30
         -303.303000000
 70
    32
  0
VERTEX
  8
MESH
 62
     10
 10
        97461.185000000
 20
        81569.337000000
 30
         -303.324000000
 70
    32
  0
VERTEX
  8
MESH
 62
     10
 10
        97463.867000000
 20
        81574.515000000
 30
         -303.416000000
 70
    32
  0
VERTEX
  8
MESH
 62
     10
 10
        97468.027000000
 20
        81578.032000000
 30
         -303.548000000
 70
    32
  0
VERTEX
  8
MESH
 62
     10
 10
        97473.566000000
 20
        81580.322000000
 30
         -303.571000000
 70
    32
  0
VERTEX
  8
MESH
 62
     10
 10
        97478.578000000
 20
        81582.720000000
 30
         -303.614000000
 70
    32
  0
VERTEX
  8
MESH
 62
     10
 10
        97483.029000000
 20
        81585.796000000
 30
         -303.771000000
 70
    32
  0
VERTEX
  8
MESH
 62
     10
 10
        97487.047000000
 20
        81589.555000000
 30
         -303.940000000
 70
    32
  0
VERTEX
  8
MESH
 62
     10
 10
        97490.774000000
 20
        81595.050000000
 30
         -304.076000000
 70
    32
  0
VERTEX
  8
MESH
 62
     10
 10
        97494.579000000
 20
        81599.857000000
 30
         -304.218000000
 70
    32
  0
VERTEX
  8
MESH
 62
     10
 10
        97497.695000000
 20
        81604.951000000
 30
         -304.487000000
 70
    32
  0
VERTEX
  8
MESH
 62
     10
 10
        97499.333000000
 20
        81610.188000000
 30
         -304.640000000
 70
    32
  0
VERTEX
  8
MESH
 62
     10
 10
        97500.912000000
 20
        81615.081000000
 30
         -304.567000000
 70
    32
  0
VERTEX
  8
MESH
 62
     10
 10
        97502.236000000
 20
        81620.731000000
 30
         -304.453000000
 70
    32
  0
VERTEX
  8
MESH
 62
     10
 10
        97504.576000000
 20
        81626.465000000
 30
         -304.622000000
 70
    32
  0
VERTEX
  8
MESH
 62
     10
 10
        97506.675000000
 20
        81631.552000000
 30
         -304.623000000
 70
    32
  0
VERTEX
  8
MESH
 62
     10
 10
        97509.126000000
 20
        81637.049000000
 30
         -304.676000000
 70
    32
  0
VERTEX
  8
MESH
 62
     10
 10
        97510.876000000
 20
        81641.884000000
 30
         -304.847000000
 70
    32
  0
VERTEX
  8
MESH
 62
     10
 10
        97513.591000000
 20
        81647.357000000
 30
         -304.883000000
 70
    32
  0
VERTEX
  8
MESH
 62
     10
 10
        97516.223000000
 20
        81652.722000000
 30
         -304.988000000
 70
    32
  0
VERTEX
  8
MESH
 62
     10
 10
        97519.065000000
 20
        81657.200000000
 30
         -305.082000000
 70
    32
  0
VERTEX
  8
MESH
 62
     10
 10
        97522.394000000
 20
        81662.214000000
 30
         -305.166000000
 70
    32
  0
VERTEX
  8
MESH
 62
     10
 10
        97525.697000000
 20
        81666.430000000
 30
         -305.394000000
 70
    32
  0
VERTEX
  8
MESH
 62
     10
 10
        97527.555000000
 20
        81671.323000000
 30
         -305.697000000
 70
    32
  0
VERTEX
  8
MESH
 62
     10
 10
        97530.064000000
 20
        81676.668000000
 30
         -305.977000000
 70
    32
  0
VERTEX
  8
MESH
 62
     10
 10
        97532.012000000
 20
        81681.483000000
 30
         -306.117000000
 70
    32
  0
VERTEX
  8
MESH
 62
     10
 10
        97534.289000000
 20
        81687.695000000
 30
         -306.295000000
 70
    32
  0
VERTEX
  8
MESH
 62
     10
 10
        97536.446000000
 20
        81693.736000000
 30
         -306.431000000
 70
    32
  0
VERTEX
  8
MESH
 62
     10
 10
        97538.207000000
 20
        81698.810000000
 30
         -306.496000000
 70
    32
  0
VERTEX
  8
MESH
 62
     10
 10
        97540.140000000
 20
        81704.803000000
 30
         -306.533000000
 70
    32
  0
VERTEX
  8
MESH
 62
     10
 10
        97542.222000000
 20
        81709.643000000
 30
         -306.590000000
 70
    32
  0
VERTEX
  8
MESH
 62
     10
 10
        97544.099000000
 20
        81715.741000000
 30
         -306.692000000
 70
    32
  0
VERTEX
  8
MESH
 62
     10
 10
        97545.784000000
 20
        81721.223000000
 30
         -306.913000000
 70
    32
  0
VERTEX
  8
MESH
 62
     10
 10
        97547.208000000
 20
        81726.577000000
 30
         -306.968000000
 70
    32
  0
VERTEX
  8
MESH
 62
     10
 10
        97549.710000000
 20
        81731.171000000
 30
         -307.086000000
 70
    32
  0
VERTEX
  8
MESH
 62
     10
 10
        97554.637000000
 20
        81729.409000000
 30
         -306.885000000
 70
    32
  0
VERTEX
  8
MESH
 62
     10
 10
        97559.893000000
 20
        81727.680000000
 30
         -306.658000000
 70
    32
  0
VERTEX
  8
MESH
 62
     10
 10
        97565.187000000
 20
        81726.428000000
 30
         -306.520000000
 70
    32
  0
VERTEX
  8
MESH
 62
     10
 10
        97570.498000000
 20
        81724.696000000
 30
         -306.412000000
 70
    32
  0
VERTEX
  8
MESH
 62
     10
 10
        97575.092000000
 20
        81722.636000000
 30
         -306.405000000
 70
    32
  0
VERTEX
  8
MESH
 62
     10
 10
        97580.770000000
 20
        81721.025000000
 30
         -306.398000000
 70
    32
  0
VERTEX
  8
MESH
 62
     10
 10
        97585.571000000
 20
        81719.403000000
 30
         -306.395000000
 70
    32
  0
VERTEX
  8
MESH
 62
     10
 10
        97590.769000000
 20
        81717.627000000
 30
         -306.259000000
 70
    32
  0
VERTEX
  8
MESH
 62
     10
 10
        97595.717000000
 20
        81715.730000000
 30
         -306.153000000
 70
    32
  0
VERTEX
  8
MESH
 62
     10
 10
        97600.780000000
 20
        81714.136000000
 30
         -305.996000000
 70
    32
  0
VERTEX
  8
MESH
 62
     10
 10
        97606.034000000
 20
        81712.253000000
 30
         -305.791000000
 70
    32
  0
VERTEX
  8
MESH
 62
     10
 10
        97609.844000000
 20
        81711.016000000
 30
         -305.711000000
 70
    32
  0
VERTEX
  8
MESH
 62
     10
 10
        97610.696000000
 20
        81716.179000000
 30
         -305.727000000
 70
    32
  0
VERTEX
  8
MESH
 62
     10
 10
        97605.863000000
 20
        81718.164000000
 30
         -305.861000000
 70
    32
  0
VERTEX
  8
MESH
 62
     10
 10
        97600.568000000
 20
        81719.878000000
 30
         -306.069000000
 70
    32
  0
VERTEX
  8
MESH
 62
     10
 10
        97595.360000000
 20
        81721.511000000
 30
         -306.214000000
 70
    32
  0
VERTEX
  8
MESH
 62
     10
 10
        97593.795000000
 20
        81726.468000000
 30
         -306.095000000
 70
    32
  0
VERTEX
  8
MESH
 62
     10
 10
        97595.009000000
 20
        81731.513000000
 30
         -305.926000000
 70
    32
  0
VERTEX
  8
MESH
 62
     10
 10
        97596.658000000
 20
        81737.475000000
 30
         -306.019000000
 70
    32
  0
VERTEX
  8
MESH
 62
     10
 10
        97597.256000000
 20
        81742.850000000
 30
         -305.925000000
 70
    32
  0
VERTEX
  8
MESH
 62
     10
 10
        97597.681000000
 20
        81748.832000000
 30
         -305.754000000
 70
    32
  0
VERTEX
  8
MESH
 62
     10
 10
        97598.750000000
 20
        81754.471000000
 30
         -305.593000000
 70
    32
  0
VERTEX
  8
MESH
 62
     10
 10
        97599.460000000
 20
        81759.502000000
 30
         -305.438000000
 70
    32
  0
VERTEX
  8
MESH
 62
     10
 10
        97600.101000000
 20
        81764.005000000
 30
         -305.410000000
 70
    32
  0
VERTEX
  8
MESH
 62
     10
 10
        97600.795000000
 20
        81766.994000000
 30
         -305.510000000
 70
    32
  0
VERTEX
  8
MESH
 62
     10
 10
        97601.116000000
 20
        81768.737000000
 30
         -305.535000000
 70
    32
  0
VERTEX
  8
MESH
 62
     10
 10
        97602.595000000
 20
        81773.810000000
 30
         -305.120000000
 70
    32
  0
VERTEX
  8
MESH
 62
     10
 10
        97604.323000000
 20
        81778.734000000
 30
         -304.939000000
 70
    32
  0
VERTEX
  8
MESH
 62
     10
 10
        97606.386000000
 20
        81784.065000000
 30
         -304.770000000
 70
    32
  0
VERTEX
  8
MESH
 62
     10
 10
        97607.752000000
 20
        81789.152000000
 30
         -304.641000000
 70
    32
  0
VERTEX
  8
MESH
 62
     10
 10
        97609.062000000
 20
        81794.058000000
 30
         -304.531000000
 70
    32
  0
VERTEX
  8
MESH
 62
     10
 10
        97610.432000000
 20
        81800.332000000
 30
         -304.417000000
 70
    32
  0
VERTEX
  8
MESH
 62
     10
 10
        97610.553000000
 20
        81806.954000000
 30
         -304.323000000
 70
    32
  0
VERTEX
  8
MESH
 62
     10
 10
        97611.026000000
 20
        81812.359000000
 30
         -304.280000000
 70
    32
  0
VERTEX
  8
MESH
 62
     10
 10
        97611.993000000
 20
        81817.330000000
 30
         -304.254000000
 70
    32
  0
VERTEX
  8
MESH
 62
     10
 10
        97613.232000000
 20
        81822.820000000
 30
         -304.188000000
 70
    32
  0
VERTEX
  8
MESH
 62
     10
 10
        97614.679000000
 20
        81828.259000000
 30
         -304.069000000
 70
    32
  0
VERTEX
  8
MESH
 62
     10
 10
        97616.315000000
 20
        81833.417000000
 30
         -303.938000000
 70
    32
  0
VERTEX
  8
MESH
 62
     10
 10
        97618.164000000
 20
        81838.351000000
 30
         -303.756000000
 70
    32
  0
VERTEX
  8
MESH
 62
     10
 10
        97620.641000000
 20
        81843.705000000
 30
         -303.681000000
 70
    32
  0
VERTEX
  8
MESH
 62
     10
 10
        97623.509000000
 20
        81847.912000000
 30
         -303.534000000
 70
    32
  0
VERTEX
  8
MESH
 62
     10
 10
        97626.453000000
 20
        81853.222000000
 30
         -303.381000000
 70
    32
  0
VERTEX
  8
MESH
 62
     10
 10
        97629.299000000
 20
        81857.916000000
 30
         -303.249000000
 70
    32
  0
VERTEX
  8
MESH
 62
     10
 10
        97631.786000000
 20
        81862.835000000
 30
         -303.205000000
 70
    32
  0
VERTEX
  8
MESH
 62
     10
 10
        97634.235000000
 20
        81868.106000000
 30
         -303.229000000
 70
    32
  0
VERTEX
  8
MESH
 62
     10
 10
        97636.179000000
 20
        81872.958000000
 30
         -303.175000000
 70
    32
  0
VERTEX
  8
MESH
 62
     10
 10
        97637.134000000
 20
        81874.846000000
 30
         -303.318000000
 70
    32
  0
VERTEX
  8
MESH
 62
     10
 10
        97639.031000000
 20
        81880.090000000
 30
         -302.980000000
 70
    32
  0
VERTEX
  8
MESH
 62
     10
 10
        97640.900000000
 20
        81884.968000000
 30
         -302.849000000
 70
    32
  0
VERTEX
  8
MESH
 62
     10
 10
        97642.815000000
 20
        81889.791000000
 30
         -302.680000000
 70
    32
  0
VERTEX
  8
MESH
 62
     10
 10
        97645.125000000
 20
        81894.974000000
 30
         -302.676000000
 70
    32
  0
VERTEX
  8
MESH
 62
     10
 10
        97646.689000000
 20
        81900.320000000
 30
         -302.614000000
 70
    32
  0
VERTEX
  8
MESH
 62
     10
 10
        97648.452000000
 20
        81905.567000000
 30
         -302.526000000
 70
    32
  0
VERTEX
  8
MESH
 62
     10
 10
        97649.802000000
 20
        81911.024000000
 30
         -302.442000000
 70
    32
  0
VERTEX
  8
MESH
 62
     10
 10
        97651.024000000
 20
        81916.305000000
 30
         -302.479000000
 70
    32
  0
VERTEX
  8
MESH
 62
     10
 10
        97646.201000000
 20
        81918.853000000
 30
         -302.443000000
 70
    32
  0
VERTEX
  8
MESH
 62
     10
 10
        97645.393000000
 20
        81913.799000000
 30
         -302.452000000
 70
    32
  0
VERTEX
  8
MESH
 62
     10
 10
        97643.790000000
 20
        81908.421000000
 30
         -302.503000000
 70
    32
  0
VERTEX
  8
MESH
 62
     10
 10
        97641.930000000
 20
        81902.044000000
 30
         -302.613000000
 70
    32
  0
VERTEX
  8
MESH
 62
     10
 10
        97639.964000000
 20
        81896.595000000
 30
         -302.678000000
 70
    32
  0
VERTEX
  8
MESH
 62
     10
 10
        97637.256000000
 20
        81890.714000000
 30
         -302.807000000
 70
    32
  0
VERTEX
  8
MESH
 62
     10
 10
        97636.472000000
 20
        81887.858000000
 30
         -302.865000000
 70
    32
  0
VERTEX
  8
MESH
 62
     10
 10
        97632.932000000
 20
        81883.255000000
 30
         -302.992000000
 70
    32
  0
VERTEX
  8
MESH
 62
     10
 10
        97631.860000000
 20
        81876.284000000
 30
         -303.143000000
 70
    32
  0
VERTEX
  8
MESH
 62
     10
 10
        97629.687000000
 20
        81870.656000000
 30
         -303.232000000
 70
    32
  0
VERTEX
  8
MESH
 62
     10
 10
        97627.530000000
 20
        81865.881000000
 30
         -303.206000000
 70
    32
  0
VERTEX
  8
MESH
 62
     10
 10
        97624.927000000
 20
        81861.238000000
 30
         -303.237000000
 70
    32
  0
VERTEX
  8
MESH
 62
     10
 10
        97622.405000000
 20
        81856.869000000
 30
         -303.353000000
 70
    32
  0
VERTEX
  8
MESH
 62
     10
 10
        97618.452000000
 20
        81850.338000000
 30
         -303.552000000
 70
    32
  0
VERTEX
  8
MESH
 62
     10
 10
        97615.817000000
 20
        81844.876000000
 30
         -303.697000000
 70
    32
  0
VERTEX
  8
MESH
 62
     10
 10
        97613.152000000
 20
        81840.021000000
 30
         -303.767000000
 70
    32
  0
VERTEX
  8
MESH
 62
     10
 10
        97610.959000000
 20
        81834.551000000
 30
         -303.968000000
 70
    32
  0
VERTEX
  8
MESH
 62
     10
 10
        97609.317000000
 20
        81829.722000000
 30
         -304.072000000
 70
    32
  0
VERTEX
  8
MESH
 62
     10
 10
        97608.159000000
 20
        81823.974000000
 30
         -304.187000000
 70
    32
  0
VERTEX
  8
MESH
 62
     10
 10
        97607.100000000
 20
        81818.370000000
 30
         -304.252000000
 70
    32
  0
VERTEX
  8
MESH
 62
     10
 10
        97605.933000000
 20
        81813.325000000
 30
         -304.280000000
 70
    32
  0
VERTEX
  8
MESH
 62
     10
 10
        97605.622000000
 20
        81807.979000000
 30
         -304.319000000
 70
    32
  0
VERTEX
  8
MESH
 62
     10
 10
        97605.413000000
 20
        81802.549000000
 30
         -304.390000000
 70
    32
  0
VERTEX
  8
MESH
 62
     10
 10
        97604.541000000
 20
        81797.559000000
 30
         -304.472000000
 70
    32
  0
VERTEX
  8
MESH
 62
     10
 10
        97603.238000000
 20
        81792.445000000
 30
         -304.598000000
 70
    32
  0
VERTEX
  8
MESH
 62
     10
 10
        97601.612000000
 20
        81787.366000000
 30
         -304.726000000
 70
    32
  0
VERTEX
  8
MESH
 62
     10
 10
        97600.312000000
 20
        81782.421000000
 30
         -304.869000000
 70
    32
  0
VERTEX
  8
MESH
 62
     10
 10
        97598.299000000
 20
        81776.637000000
 30
         -305.070000000
 70
    32
  0
VERTEX
  8
MESH
 62
     10
 10
        97596.181000000
 20
        81769.116000000
 30
         -305.261000000
 70
    32
  0
VERTEX
  8
MESH
 62
     10
 10
        97596.398000000
 20
        81768.066000000
 30
         -305.510000000
 70
    32
  0
VERTEX
  8
MESH
 62
     10
 10
        97595.363000000
 20
        81764.025000000
 30
         -305.383000000
 70
    32
  0
VERTEX
  8
MESH
 62
     10
 10
        97593.932000000
 20
        81758.773000000
 30
         -305.477000000
 70
    32
  0
VERTEX
  8
MESH
 62
     10
 10
        97593.167000000
 20
        81753.805000000
 30
         -305.628000000
 70
    32
  0
VERTEX
  8
MESH
 62
     10
 10
        97592.547000000
 20
        81747.625000000
 30
         -305.903000000
 70
    32
  0
VERTEX
  8
MESH
 62
     10
 10
        97591.987000000
 20
        81742.513000000
 30
         -305.931000000
 70
    32
  0
VERTEX
  8
MESH
 62
     10
 10
        97591.443000000
 20
        81737.533000000
 30
         -305.992000000
 70
    32
  0
VERTEX
  8
MESH
 62
     10
 10
        97589.712000000
 20
        81731.384000000
 30
         -305.960000000
 70
    32
  0
VERTEX
  8
MESH
 62
     10
 10
        97586.882000000
 20
        81726.374000000
 30
         -306.220000000
 70
    32
  0
VERTEX
  8
MESH
 62
     10
 10
        97581.572000000
 20
        81726.043000000
 30
         -306.406000000
 70
    32
  0
VERTEX
  8
MESH
 62
     10
 10
        97575.598000000
 20
        81727.701000000
 30
         -306.409000000
 70
    32
  0
VERTEX
  8
MESH
 62
     10
 10
        97570.403000000
 20
        81730.268000000
 30
         -306.421000000
 70
    32
  0
VERTEX
  8
MESH
 62
     10
 10
        97564.561000000
 20
        81732.177000000
 30
         -306.584000000
 70
    32
  0
VERTEX
  8
MESH
 62
     10
 10
        97558.866000000
 20
        81733.397000000
 30
         -306.758000000
 70
    32
  0
VERTEX
  8
MESH
 62
     10
 10
        97554.494000000
 20
        81735.904000000
 30
         -307.019000000
 70
    32
  0
VERTEX
  8
MESH
 62
     10
 10
        97550.174000000
 20
        81739.504000000
 30
         -307.173000000
 70
    32
  0
VERTEX
  8
MESH
 62
     10
 10
        97546.139000000
 20
        81742.650000000
 30
         -307.312000000
 70
    32
  0
VERTEX
  8
MESH
 62
     10
 10
        97543.145000000
 20
        81748.000000000
 30
         -307.353000000
 70
    32
  0
VERTEX
  8
MESH
 62
     10
 10
        97538.160000000
 20
        81752.292000000
 30
         -307.339000000
 70
    32
  0
VERTEX
  8
MESH
 62
     10
 10
        97533.655000000
 20
        81754.530000000
 30
         -307.306000000
 70
    32
  0
VERTEX
  8
MESH
 62
     10
 10
        97534.663000000
 20
        81760.178000000
 30
         -307.205000000
 70
    32
  0
VERTEX
  8
MESH
 62
     10
 10
        97537.250000000
 20
        81764.992000000
 30
         -307.037000000
 70
    32
  0
VERTEX
  8
MESH
 62
     10
 10
        97542.658000000
 20
        81764.169000000
 30
         -306.764000000
 70
    32
  0
VERTEX
  8
MESH
 62
     10
 10
        97547.256000000
 20
        81761.904000000
 30
         -306.724000000
 70
    32
  0
VERTEX
  8
MESH
 62
     10
 10
        97549.460000000
 20
        81766.577000000
 30
         -306.724000000
 70
    32
  0
VERTEX
  8
MESH
 62
     10
 10
        97544.033000000
 20
        81769.304000000
 30
         -307.058000000
 70
    32
  0
VERTEX
  8
MESH
 62
     10
 10
        97541.579000000
 20
        81774.437000000
 30
         -307.008000000
 70
    32
  0
VERTEX
  8
MESH
 62
     10
 10
        97543.674000000
 20
        81779.336000000
 30
         -306.876000000
 70
    32
  0
VERTEX
  8
MESH
 62
     10
 10
        97548.477000000
 20
        81782.047000000
 30
         -306.948000000
 70
    32
  0
VERTEX
  8
MESH
 62
     10
 10
        97554.813000000
 20
        81779.348000000
 30
         -306.863000000
 70
    32
  0
VERTEX
  8
MESH
 62
     10
 10
        97559.545000000
 20
        81776.847000000
 30
         -306.676000000
 70
    32
  0
VERTEX
  8
MESH
 62
     10
 10
        97561.751000000
 20
        81776.299000000
 30
         -306.612000000
 70
    32
  0
VERTEX
  8
MESH
 62
     10
 10
        97562.894000000
 20
        81780.143000000
 30
         -306.612000000
 70
    32
  0
VERTEX
  8
MESH
 62
     10
 10
        97557.804000000
 20
        81783.306000000
 30
         -306.865000000
 70
    32
  0
VERTEX
  8
MESH
 62
     10
 10
        97553.467000000
 20
        81785.903000000
 30
         -306.863000000
 70
    32
  0
VERTEX
  8
MESH
 62
     10
 10
        97549.060000000
 20
        81788.397000000
 30
         -307.031000000
 70
    32
  0
VERTEX
  8
MESH
 62
     10
 10
        97543.329000000
 20
        81790.003000000
 30
         -307.061000000
 70
    32
  0
VERTEX
  8
MESH
 62
     10
 10
        97539.034000000
 20
        81785.833000000
 30
         -306.809000000
 70
    32
  0
VERTEX
  8
MESH
 62
     10
 10
        97533.751000000
 20
        81786.268000000
 30
         -306.475000000
 70
    32
  0
VERTEX
  8
MESH
 62
     10
 10
        97532.384000000
 20
        81781.320000000
 30
         -306.475000000
 70
    32
  0
VERTEX
  8
MESH
 62
     10
 10
        97536.326000000
 20
        81778.014000000
 30
         -306.957000000
 70
    32
  0
VERTEX
  8
MESH
 62
     10
 10
        97532.728000000
 20
        81774.471000000
 30
         -306.930000000
 70
    32
  0
VERTEX
  8
MESH
 62
     10
 10
        97530.003000000
 20
        81776.135000000
 30
         -306.924000000
 70
    32
  0
VERTEX
  8
MESH
 62
     10
 10
        97527.045000000
 20
        81772.197000000
 30
         -306.925000000
 70
    32
  0
VERTEX
  8
MESH
 62
     10
 10
        97529.949000000
 20
        81767.632000000
 30
         -306.947000000
 70
    32
  0
VERTEX
  8
MESH
 62
     10
 10
        97529.765000000
 20
        81762.326000000
 30
         -307.212000000
 70
    32
  0
VERTEX
  8
MESH
 62
     10
 10
        97525.213000000
 20
        81759.488000000
 30
         -307.525000000
 70
    32
  0
VERTEX
  8
MESH
 62
     10
 10
        97520.099000000
 20
        81761.884000000
 30
         -307.755000000
 70
    32
  0
VERTEX
  8
MESH
 62
     10
 10
        97515.167000000
 20
        81764.798000000
 30
         -307.665000000
 70
    32
  0
VERTEX
  8
MESH
 62
     10
 10
        97509.729000000
 20
        81767.664000000
 30
         -307.567000000
 70
    32
  0
VERTEX
  8
MESH
 62
     10
 10
        97505.223000000
 20
        81770.023000000
 30
         -307.534000000
 70
    32
  0
VERTEX
  8
MESH
 62
     10
 10
        97500.218000000
 20
        81773.214000000
 30
         -307.776000000
 70
    32
  0
VERTEX
  8
MESH
 62
     10
 10
        97500.067000000
 20
        81778.408000000
 30
         -307.863000000
 70
    32
  0
VERTEX
  8
MESH
 62
     10
 10
        97502.310000000
 20
        81783.072000000
 30
         -307.733000000
 70
    32
  0
VERTEX
  8
MESH
 62
     10
 10
        97504.650000000
 20
        81788.144000000
 30
         -307.524000000
 70
    32
  0
VERTEX
  8
MESH
 62
     10
 10
        97506.814000000
 20
        81793.429000000
 30
         -307.303000000
 70
    32
  0
VERTEX
  8
MESH
 62
     10
 10
        97503.073000000
 20
        81795.878000000
 30
         -307.255000000
 70
    32
  0
VERTEX
  8
MESH
 62
     10
 10
        97499.793000000
 20
        81790.579000000
 30
         -307.523000000
 70
    32
  0
VERTEX
  8
MESH
 62
     10
 10
        97497.153000000
 20
        81784.904000000
 30
         -307.741000000
 70
    32
  0
VERTEX
  8
MESH
 62
     10
 10
        97494.664000000
 20
        81779.902000000
 30
         -307.861000000
 70
    32
  0
VERTEX
  8
MESH
 62
     10
 10
        97489.975000000
 20
        81777.945000000
 30
         -307.858000000
 70
    32
  0
VERTEX
  8
MESH
 62
     10
 10
        97485.572000000
 20
        81780.431000000
 30
         -308.147000000
 70
    32
  0
VERTEX
  8
MESH
 62
     10
 10
        97480.649000000
 20
        81782.588000000
 30
         -308.245000000
 70
    32
  0
VERTEX
  8
MESH
 62
     10
 10
        97476.490000000
 20
        81785.357000000
 30
         -308.475000000
 70
    32
  0
VERTEX
  8
MESH
 62
     10
 10
        97471.057000000
 20
        81787.532000000
 30
         -308.696000000
 70
    32
  0
VERTEX
  8
MESH
 62
     10
 10
        97465.603000000
 20
        81786.642000000
 30
         -308.958000000
 70
    32
  0
VERTEX
  8
MESH
 62
     10
 10
        97459.461000000
 20
        81786.159000000
 30
         -309.198000000
 70
    32
  0
VERTEX
  8
MESH
 62
     10
 10
        97453.371000000
 20
        81786.198000000
 30
         -309.469000000
 70
    32
  0
VERTEX
  8
MESH
 62
     10
 10
        97448.209000000
 20
        81785.061000000
 30
         -309.562000000
 70
    32
  0
VERTEX
  8
MESH
 62
     10
 10
        97442.855000000
 20
        81785.287000000
 30
         -309.763000000
 70
    32
  0
VERTEX
  8
MESH
 62
     10
 10
        97436.967000000
 20
        81784.055000000
 30
         -309.824000000
 70
    32
  0
VERTEX
  8
MESH
 62
     10
 10
        97431.288000000
 20
        81783.353000000
 30
         -309.648000000
 70
    32
  0
VERTEX
  8
MESH
 62
     10
 10
        97425.935000000
 20
        81783.368000000
 30
         -309.566000000
 70
    32
  0
VERTEX
  8
MESH
 62
     10
 10
        97421.460000000
 20
        81786.005000000
 30
         -308.836000000
 70
    32
  0
VERTEX
  8
MESH
 62
     10
 10
        97420.826000000
 20
        81790.818000000
 30
         -307.647000000
 70
    32
  0
VERTEX
  8
MESH
 62
     10
 10
        97425.281000000
 20
        81793.164000000
 30
         -306.854000000
 70
    32
  0
VERTEX
  8
MESH
 62
     10
 10
        97424.553000000
 20
        81798.785000000
 30
         -306.735000000
 70
    32
  0
VERTEX
  8
MESH
 62
     10
 10
        97419.581000000
 20
        81799.479000000
 30
         -306.853000000
 70
    32
  0
VERTEX
  8
MESH
 62
     10
 10
        97415.782000000
 20
        81803.667000000
 30
         -306.326000000
 70
    32
  0
VERTEX
  8
MESH
 62
     10
 10
        97413.434000000
 20
        81808.429000000
 30
         -305.450000000
 70
    32
  0
VERTEX
  8
MESH
 62
     10
 10
        97410.911000000
 20
        81813.590000000
 30
         -304.465000000
 70
    32
  0
VERTEX
  8
MESH
 62
     10
 10
        97413.708000000
 20
        81818.174000000
 30
         -303.505000000
 70
    32
  0
VERTEX
  8
MESH
 62
     10
 10
        97419.311000000
 20
        81817.403000000
 30
         -303.538000000
 70
    32
  0
VERTEX
  8
MESH
 62
     10
 10
        97424.539000000
 20
        81814.768000000
 30
         -303.449000000
 70
    32
  0
VERTEX
  8
MESH
 62
     10
 10
        97427.870000000
 20
        81813.309000000
 30
         -303.420000000
 70
    32
  0
VERTEX
  8
MESH
 62
     10
 10
        97429.607000000
 20
        81818.284000000
 30
         -303.435000000
 70
    32
  0
VERTEX
  8
MESH
 62
     10
 10
        97424.219000000
 20
        81820.986000000
 30
         -303.524000000
 70
    32
  0
VERTEX
  8
MESH
 62
     10
 10
        97423.775000000
 20
        81823.810000000
 30
         -303.336000000
 70
    32
  0
VERTEX
  8
MESH
 62
     10
 10
        97428.390000000
 20
        81826.323000000
 30
         -303.293000000
 70
    32
  0
VERTEX
  8
MESH
 62
     10
 10
        97430.707000000
 20
        81828.432000000
 30
         -303.232000000
 70
    32
  0
VERTEX
  8
MESH
 62
     10
 10
        97427.828000000
 20
        81832.316000000
 30
         -303.247000000
 70
    32
  0
VERTEX
  8
MESH
 62
     10
 10
        97423.006000000
 20
        81829.539000000
 30
         -303.354000000
 70
    32
  0
VERTEX
  8
MESH
 62
     10
 10
        97418.885000000
 20
        81826.601000000
 30
         -303.293000000
 70
    32
  0
VERTEX
  8
MESH
 62
     10
 10
        97414.146000000
 20
        81824.480000000
 30
         -303.344000000
 70
    32
  0
VERTEX
  8
MESH
 62
     10
 10
        97409.159000000
 20
        81822.732000000
 30
         -303.469000000
 70
    32
  0
VERTEX
  8
MESH
 62
     10
 10
        97404.665000000
 20
        81825.701000000
 30
         -302.912000000
 70
    32
  0
VERTEX
  8
MESH
 62
     10
 10
        97401.719000000
 20
        81830.834000000
 30
         -302.474000000
 70
    32
  0
VERTEX
  8
MESH
 62
     10
 10
        97399.128000000
 20
        81835.181000000
 30
         -301.961000000
 70
    32
  0
VERTEX
  8
MESH
 62
     10
 10
        97395.225000000
 20
        81838.766000000
 30
         -301.228000000
 70
    32
  0
VERTEX
  8
MESH
 62
     10
 10
        97390.411000000
 20
        81841.350000000
 30
         -300.460000000
 70
    32
  0
VERTEX
  8
MESH
 62
     10
 10
        97385.554000000
 20
        81843.112000000
 30
         -299.894000000
 70
    32
  0
VERTEX
  8
MESH
 62
     10
 10
        97379.459000000
 20
        81842.529000000
 30
         -299.220000000
 70
    32
  0
VERTEX
  8
MESH
 62
     10
 10
        97374.175000000
 20
        81841.658000000
 30
         -298.444000000
 70
    32
  0
VERTEX
  8
MESH
 62
     10
 10
        97368.327000000
 20
        81840.060000000
 30
         -297.625000000
 70
    32
  0
VERTEX
  8
MESH
 62
     10
 10
        97363.884000000
 20
        81836.088000000
 30
         -296.681000000
 70
    32
  0
VERTEX
  8
MESH
 62
     10
 10
        97361.404000000
 20
        81831.732000000
 30
         -295.970000000
 70
    32
  0
VERTEX
  8
MESH
 62
     10
 10
        97359.569000000
 20
        81826.024000000
 30
         -295.389000000
 70
    32
  0
VERTEX
  8
MESH
 62
     10
 10
        97359.182000000
 20
        81825.008000000
 30
         -295.295000000
 70
    32
  0
SEQEND
  0
ENDSEC
  0
EOF
